  0
SECTION
  2
HEADER
  9
$ACADVER
  1
AC1015
  9
$ACADMAINTVER
 70
     6
  9
$DWGCODEPAGE
  3
ANSI_1252
  9
$INSBASE
 10
0.0
 20
0.0
 30
0.0
  9
$EXTMIN
 10
0.0
 20
0.0
 30
0.0
  9
$EXTMAX
 10
1189.0
 20
841.0
 30
0.0
  9
$LIMMIN
 10
0.0
 20
0.0
  9
$LIMMAX
 10
1189.0
 20
841.0
  9
$ORTHOMODE
 70
     0
  9
$REGENMODE
 70
     1
  9
$FILLMODE
 70
     1
  9
$QTEXTMODE
 70
     0
  9
$MIRRTEXT
 70
     1
  9
$LTSCALE
 40
1.0
  9
$ATTMODE
 70
     1
  9
$TEXTSIZE
 40
3.5277777778
  9
$TRACEWID
 40
1.0
  9
$TEXTSTYLE
  7
Standard
  9
$CLAYER
  8
0
  9
$CELTYPE
  6
ByLayer
  9
$CECOLOR
 62
   256
  9
$CELTSCALE
 40
1.0
  9
$DISPSILH
 70
     0
  9
$DIMSCALE
 40
1.0
  9
$DIMASZ
 40
2.5683186849
  9
$DIMEXO
 40
1.0
  9
$DIMDLI
 40
3.75
  9
$DIMRND
 40
0.0
  9
$DIMDLE
 40
0.0
  9
$DIMEXE
 40
1.0
  9
$DIMTP
 40
0.0
  9
$DIMTM
 40
0.0
  9
$DIMTXT
 40
3.5277777778
  9
$DIMCEN
 40
2.5
  9
$DIMTSZ
 40
0.0
  9
$DIMTOL
 70
     0
  9
$DIMLIM
 70
     0
  9
$DIMTIH
 70
     1
  9
$DIMTOH
 70
     1
  9
$DIMSE1
 70
     0
  9
$DIMSE2
 70
     0
  9
$DIMTAD
 70
     1
  9
$DIMZIN
 70
     0
  9
$DIMBLK
  1

  9
$DIMASO
 70
     1
  9
$DIMSHO
 70
     1
  9
$DIMPOST
  1

  9
$DIMAPOST
  1

  9
$DIMALT
 70
     0
  9
$DIMALTD
 70
     3
  9
$DIMALTF
 40
0.0393700787
  9
$DIMLFAC
 40
1.0
  9
$DIMTOFL
 70
     1
  9
$DIMTVP
 40
0.0
  9
$DIMTIX
 70
     0
  9
$DIMSOXD
 70
     0
  9
$DIMSAH
 70
     0
  9
$DIMBLK1
  1

  9
$DIMBLK2
  1

  9
$DIMSTYLE
  2
ISO-25
  9
$DIMCLRD
 70
     0
  9
$DIMCLRE
 70
     0
  9
$DIMCLRT
 70
     0
  9
$DIMTFAC
 40
1.0
  9
$DIMGAP
 40
1.524
  9
$DIMJUST
 70
     0
  9
$DIMSD1
 70
     0
  9
$DIMSD2
 70
     0
  9
$DIMTOLJ
 70
     0
  9
$DIMTZIN
 70
     0
  9
$DIMALTZ
 70
     0
  9
$DIMALTTZ
 70
     0
  9
$DIMUPT
 70
     0
  9
$DIMDEC
 70
     2
  9
$DIMTDEC
 70
     2
  9
$DIMALTU
 70
     2
  9
$DIMALTTD
 70
     3
  9
$DIMTXSTY
  7
Standard
  9
$DIMAUNIT
 70
     0
  9
$DIMADEC
 70
     2
  9
$DIMALTRND
 40
0.0
  9
$DIMAZIN
 70
     0
  9
$DIMDSEP
 70
    44
  9
$DIMATFIT
 70
     3
  9
$DIMFRAC
 70
     0
  9
$DIMLDRBLK
  1

  9
$DIMLUNIT
 70
     2
  9
$DIMLWD
 70
    -2
  9
$DIMLWE
 70
    -2
  9
$DIMTMOVE
 70
     0
  9
$LUNITS
 70
     2
  9
$LUPREC
 70
     2
  9
$SKETCHINC
 40
1.0
  9
$FILLETRAD
 40
10.0
  9
$AUNITS
 70
     0
  9
$AUPREC
 70
     2
  9
$MENU
  1
.
  9
$ELEVATION
 40
0.0
  9
$PELEVATION
 40
0.0
  9
$THICKNESS
 40
0.0
  9
$LIMCHECK
 70
     0
  9
$CHAMFERA
 40
0.0
  9
$CHAMFERB
 40
0.0
  9
$CHAMFERC
 40
0.0
  9
$CHAMFERD
 40
0.0
  9
$SKPOLY
 70
     0
  9
$TDCREATE
 40
2458983.48742272
  9
$TDUCREATE
 40
2458983.36242272
  9
$TDUPDATE
 40
2458983.487423519
  9
$TDUUPDATE
 40
2458983.362423519
  9
$TDINDWG
 40
0.0000000116
  9
$TDUSRTIMER
 40
0.0000000116
  9
$USRTIMER
 70
     1
  9
$ANGBASE
 50
0.0
  9
$ANGDIR
 70
     0
  9
$PDMODE
 70
     0
  9
$PDSIZE
 40
-1.0
  9
$PLINEWID
 40
0.0
  9
$SPLFRAME
 70
     0
  9
$SPLINETYPE
 70
     6
  9
$SPLINESEGS
 70
     8
  9
$HANDSEED
  5
2FC
  9
$SURFTAB1
 70
     6
  9
$SURFTAB2
 70
     6
  9
$SURFTYPE
 70
     6
  9
$SURFU
 70
     6
  9
$SURFV
 70
     6
  9
$UCSBASE
  2

  9
$UCSNAME
  2

  9
$UCSORG
 10
0.0
 20
0.0
 30
0.0
  9
$UCSXDIR
 10
1.0
 20
0.0
 30
0.0
  9
$UCSYDIR
 10
0.0
 20
1.0
 30
0.0
  9
$UCSORTHOREF
  2

  9
$UCSORTHOVIEW
 70
     0
  9
$UCSORGTOP
 10
0.0
 20
0.0
 30
0.0
  9
$UCSORGBOTTOM
 10
0.0
 20
0.0
 30
0.0
  9
$UCSORGLEFT
 10
0.0
 20
0.0
 30
0.0
  9
$UCSORGRIGHT
 10
0.0
 20
0.0
 30
0.0
  9
$UCSORGFRONT
 10
0.0
 20
0.0
 30
0.0
  9
$UCSORGBACK
 10
0.0
 20
0.0
 30
0.0
  9
$PUCSBASE
  2

  9
$PUCSNAME
  2

  9
$PUCSORG
 10
0.0
 20
0.0
 30
0.0
  9
$PUCSXDIR
 10
1.0
 20
0.0
 30
0.0
  9
$PUCSYDIR
 10
0.0
 20
1.0
 30
0.0
  9
$PUCSORTHOREF
  2

  9
$PUCSORTHOVIEW
 70
     0
  9
$PUCSORGTOP
 10
0.0
 20
0.0
 30
0.0
  9
$PUCSORGBOTTOM
 10
0.0
 20
0.0
 30
0.0
  9
$PUCSORGLEFT
 10
0.0
 20
0.0
 30
0.0
  9
$PUCSORGRIGHT
 10
0.0
 20
0.0
 30
0.0
  9
$PUCSORGFRONT
 10
0.0
 20
0.0
 30
0.0
  9
$PUCSORGBACK
 10
0.0
 20
0.0
 30
0.0
  9
$USERI1
 70
     0
  9
$USERI2
 70
     0
  9
$USERI3
 70
     0
  9
$USERI4
 70
     0
  9
$USERI5
 70
     0
  9
$USERR1
 40
0.0
  9
$USERR2
 40
0.0
  9
$USERR3
 40
0.0
  9
$USERR4
 40
0.0
  9
$USERR5
 40
0.0
  9
$WORLDVIEW
 70
     1
  9
$SHADEDGE
 70
     3
  9
$SHADEDIF
 70
    70
  9
$TILEMODE
 70
     1
  9
$MAXACTVP
 70
    64
  9
$PINSBASE
 10
0.0
 20
0.0
 30
0.0
  9
$PLIMCHECK
 70
     0
  9
$PEXTMIN
 10
1.0000000000E+20
 20
1.0000000000E+20
 30
1.0000000000E+20
  9
$PEXTMAX
 10
-1.0000000000E+20
 20
-1.0000000000E+20
 30
-1.0000000000E+20
  9
$PLIMMIN
 10
0.0
 20
0.0
  9
$PLIMMAX
 10
420.0
 20
297.0
  9
$UNITMODE
 70
     0
  9
$VISRETAIN
 70
     1
  9
$PLINEGEN
 70
     0
  9
$PSLTSCALE
 70
     1
  9
$TREEDEPTH
 70
  3020
  9
$CMLSTYLE
  2
Standard
  9
$CMLJUST
 70
     0
  9
$CMLSCALE
 40
20.0
  9
$PROXYGRAPHICS
 70
     1
  9
$MEASUREMENT
 70
     1
  9
$CELWEIGHT
370
    -1
  9
$ENDCAPS
280
     0
  9
$JOINSTYLE
280
     0
  9
$LWDISPLAY
290
     1
  9
$INSUNITS
 70
     4
  9
$HYPERLINKBASE
  1

  9
$STYLESHEET
  1

  9
$XEDIT
290
     1
  9
$CEPSNTYPE
380
     0
  9
$PSTYLEMODE
290
     1
  9
$FINGERPRINTGUID
  2
{09338CBB-1D07-4EA8-8407-9B1D492A9BE3}
  9
$VERSIONGUID
  2
{FAEB1C32-E019-11D5-929B-00C0DF256EC4}
  9
$EXTNAMES
290
     1
  9
$PSVPSCALE
 40
0.0
  9
$OLESTARTUP
290
     0
  0
ENDSEC
  0
SECTION
  2
CLASSES
  0
CLASS
  1
ACDBDICTIONARYWDFLT
  2
AcDbDictionaryWithDefault
  3
ObjectDBX Classes
 90
        0
280
     0
281
     0
  0
CLASS
  1
VISUALSTYLE
  2
AcDbVisualStyle
  3
ObjectDBX Classes
 90
     4095
280
     0
281
     0
  0
CLASS
  1
MATERIAL
  2
AcDbMaterial
  3
ObjectDBX Classes
 90
     1153
280
     0
281
     0
  0
CLASS
  1
SCALE
  2
AcDbScale
  3
ObjectDBX Classes
 90
     1153
280
     0
281
     0
  0
CLASS
  1
TABLESTYLE
  2
AcDbTableStyle
  3
ObjectDBX Classes
 90
     4095
280
     0
281
     0
  0
CLASS
  1
MLEADERSTYLE
  2
AcDbMLeaderStyle
  3
ACDB_MLEADERSTYLE_CLASS
 90
     4095
280
     0
281
     0
  0
CLASS
  1
SUN
  2
AcDbSun
  3
SCENEOE
 90
     1153
280
     0
281
     0
  0
CLASS
  1
ACDBPLACEHOLDER
  2
AcDbPlaceHolder
  3
ObjectDBX Classes
 90
        0
280
     0
281
     0
  0
CLASS
  1
LAYOUT
  2
AcDbLayout
  3
ObjectDBX Classes
 90
        0
280
     0
281
     0
  0
ENDSEC
  0
SECTION
  2
TABLES
  0
TABLE
  2
VPORT
  5
8
330
0
100
AcDbSymbolTable
 70
     1
  0
VPORT
  5
29
330
8
100
AcDbSymbolTableRecord
100
AcDbViewportTableRecord
  2
*Active
 70
     0
 10
0.0
 20
0.0
 11
1.0
 21
1.0
 12
594.5
 22
420.5
 13
0.0
 23
0.0
 14
10.0
 24
10.0
 15
10.0
 25
10.0
 16
0.0
 26
0.0
 36
1.0
 17
0.0
 27
0.0
 37
0.0
 40
841.0
 41
1.4137931034
 42
50.0
 43
0.0
 44
0.0
 50
0.0
 51
0.0
 71
     0
 72
  2000
 73
     1
 74
     3
 75
     0
 76
     0
 77
     0
 78
     0
281
     0
 65
     1
110
0.0
120
0.0
130
0.0
111
1.0
121
0.0
131
0.0
112
0.0
122
1.0
132
0.0
 79
     0
146
0.0
  0
ENDTAB
  0
TABLE
  2
LTYPE
  5
5
330
0
100
AcDbSymbolTable
 70
     6
  0
LTYPE
  5
14
330
5
100
AcDbSymbolTableRecord
100
AcDbLinetypeTableRecord
  2
ByBlock
 70
     0
  3

 72
    65
 73
     0
 40
0.0
  0
LTYPE
  5
15
330
5
100
AcDbSymbolTableRecord
100
AcDbLinetypeTableRecord
  2
ByLayer
 70
     0
  3

 72
    65
 73
     0
 40
0.0
  0
LTYPE
  5
16
330
5
100
AcDbSymbolTableRecord
100
AcDbLinetypeTableRecord
  2
Continuous
 70
     0
  3
Solid line
 72
    65
 73
     0
 40
0.0
  0
LTYPE
  5
6E
330
5
100
AcDbSymbolTableRecord
100
AcDbLinetypeTableRecord
  2
HIDDEN
 70
     0
  3
Hidden __ __ __ __ __ __ __ __ __ __ __ __ __ __
 72
    65
 73
     2
 40
1.905
 49
1.27
 74
     0
 49
-0.635
 74
     0
  0
LTYPE
  5
6F
330
5
100
AcDbSymbolTableRecord
100
AcDbLinetypeTableRecord
  2
PHANTOM
 70
     0
  3
Phantom ______  __  __  ______  __  __  ______
 72
    65
 73
     6
 40
12.7
 49
6.35
 74
     0
 49
-1.27
 74
     0
 49
1.27
 74
     0
 49
-1.27
 74
     0
 49
1.27
 74
     0
 49
-1.27
 74
     0
  0
LTYPE
  5
70
330
5
100
AcDbSymbolTableRecord
100
AcDbLinetypeTableRecord
  2
CENTER
 70
     0
  3
Center ____ _ ____ _ ____ _ ____ _ ____ _ ____
 72
    65
 73
     4
 40
10.16
 49
6.35
 74
     0
 49
-1.27
 74
     0
 49
1.27
 74
     0
 49
-1.27
 74
     0
  0
LTYPE
  5
71
330
5
100
AcDbSymbolTableRecord
100
AcDbLinetypeTableRecord
  2
CENTERX2
 70
     0
  3
Center (2x) ________  __  ________  __  _____
 72
    65
 73
     4
 40
20.32
 49
12.7
 74
     0
 49
-2.54
 74
     0
 49
2.54
 74
     0
 49
-2.54
 74
     0
  0
LTYPE
  5
72
330
5
100
AcDbSymbolTableRecord
100
AcDbLinetypeTableRecord
  2
DOT2
 70
     0
  3
Dot (.5x) ........................................
 72
    65
 73
     2
 40
0.635
 49
0.0
 74
     0
 49
-0.635
 74
     0
  0
ENDTAB
  0
TABLE
  2
LAYER
  5
2
330
0
100
AcDbSymbolTable
 70
    12
  0
LAYER
  5
10
330
2
100
AcDbSymbolTableRecord
100
AcDbLayerTableRecord
  2
0
 70
     0
 62
     7
  6
Continuous
370
    -3
390
F
  0
LAYER
  5
73
330
2
100
AcDbSymbolTableRecord
100
AcDbLayerTableRecord
  2
FORMAT
 70
     0
 62
    27
  6
Continuous
370
    -3
390
F
  0
LAYER
  5
74
330
2
100
AcDbSymbolTableRecord
100
AcDbLayerTableRecord
  2
LAYER1
 70
     0
 62
    27
  6
Continuous
370
    35
390
F
  0
LAYER
  5
75
330
2
100
AcDbSymbolTableRecord
100
AcDbLayerTableRecord
  2
LAYER2
 70
     0
 62
    27
  6
Continuous
370
    25
390
F
  0
LAYER
  5
76
330
2
100
AcDbSymbolTableRecord
100
AcDbLayerTableRecord
  2
LAYER3
 70
     0
 62
     7
  6
HIDDEN
370
    25
390
F
  0
LAYER
  5
77
330
2
100
AcDbSymbolTableRecord
100
AcDbLayerTableRecord
  2
LAYER4
 70
     0
 62
     7
  6
Continuous
370
    -3
390
F
  0
LAYER
  5
78
330
2
100
AcDbSymbolTableRecord
100
AcDbLayerTableRecord
  2
LAYER5
 70
     0
 62
     7
  6
Continuous
370
    25
390
F
  0
LAYER
  5
79
330
2
100
AcDbSymbolTableRecord
100
AcDbLayerTableRecord
  2
NECOM
 70
     0
 62
   150
  6
Continuous
370
    25
390
F
  0
LAYER
  5
7A
330
2
100
AcDbSymbolTableRecord
100
AcDbLayerTableRecord
  2
FIRST_ANGLE_AXIS
 70
     0
 62
     3
  6
CENTER
370
    35
390
F
  0
LAYER
  5
7B
330
2
100
AcDbSymbolTableRecord
100
AcDbLayerTableRecord
  2
FIRST_ANGLE_FIGURE
 70
     0
 62
     7
  6
Continuous
370
    25
390
F
  0
LAYER
  5
7C
330
2
100
AcDbSymbolTableRecord
100
AcDbLayerTableRecord
  2
\U+041E\U+0421\U+0415\U+0412\U+042B\U+0415
 70
     0
 62
     7
  6
Continuous
370
    -3
390
F
  0
LAYER
  5
7D
330
2
100
AcDbSymbolTableRecord
100
AcDbLayerTableRecord
  2
\U+0412\U+041E\U+0414\U+042F\U+041D\U+042B\U+0415_\U+0417\U+041D\U+0410\U+041A\U+0418
 70
     0
 62
    11
  6
Continuous
370
    -3
390
F
  0
ENDTAB
  0
TABLE
  2
STYLE
  5
3
330
0
100
AcDbSymbolTable
 70
     1
  0
STYLE
  5
11
330
3
100
AcDbSymbolTableRecord
100
AcDbTextStyleTableRecord
  2
Standard
 70
     0
 40
0.0
 41
1.0
 50
0.0
 71
     0
 42
3.5277777778
  3
txt
  4

  0
ENDTAB
  0
TABLE
  2
VIEW
  5
6
330
0
100
AcDbSymbolTable
 70
     0
  0
ENDTAB
  0
TABLE
  2
UCS
  5
7
330
0
100
AcDbSymbolTable
 70
     0
  0
ENDTAB
  0
TABLE
  2
APPID
  5
9
330
0
100
AcDbSymbolTable
 70
     1
  0
APPID
  5
12
330
9
100
AcDbSymbolTableRecord
100
AcDbRegAppTableRecord
  2
ACAD
 70
     0
  0
ENDTAB
  0
TABLE
  2
DIMSTYLE
  5
A
330
0
100
AcDbSymbolTable
 70
     1
100
AcDbDimStyleTable
  0
DIMSTYLE
105
27
330
A
100
AcDbSymbolTableRecord
100
AcDbDimStyleTableRecord
  2
ISO-25
 70
     0
 41
2.5
 42
0.625
 43
3.75
 44
1.25
 73
     0
 74
     0
 77
     1
 78
     8
140
2.5
141
2.5
143
0.0393700787
147
0.625
171
     3
172
     1
178
     0
271
     2
272
     2
274
     3
278
    44
283
     0
284
     8
340
11
  0
ENDTAB
  0
TABLE
  2
BLOCK_RECORD
  5
1
330
0
100
AcDbSymbolTable
 70
     1
  0
BLOCK_RECORD
  5
1F
330
1
100
AcDbSymbolTableRecord
100
AcDbBlockTableRecord
  2
*Model_Space
340
22
  0
BLOCK_RECORD
  5
1B
330
1
100
AcDbSymbolTableRecord
100
AcDbBlockTableRecord
  2
*Paper_Space
340
1E
  0
BLOCK_RECORD
  5
23
330
1
100
AcDbSymbolTableRecord
100
AcDbBlockTableRecord
  2
*Paper_Space0
340
26
  0
ENDTAB
  0
ENDSEC
  0
SECTION
  2
BLOCKS
  0
BLOCK
  5
20
330
1F
100
AcDbEntity
  8
0
100
AcDbBlockBegin
  2
*Model_Space
 70
     0
 10
0.0
 20
0.0
 30
0.0
  3
*Model_Space
  1

  0
ENDBLK
  5
21
330
1F
100
AcDbEntity
  8
0
100
AcDbBlockEnd
  0
BLOCK
  5
1C
330
1B
100
AcDbEntity
 67
     1
  8
0
100
AcDbBlockBegin
  2
*Paper_Space
 70
     0
 10
0.0
 20
0.0
 30
0.0
  3
*Paper_Space
  1

  0
ENDBLK
  5
1D
330
1B
100
AcDbEntity
 67
     1
  8
0
100
AcDbBlockEnd
  0
BLOCK
  5
24
330
23
100
AcDbEntity
  8
0
100
AcDbBlockBegin
  2
*Paper_Space0
 70
     0
 10
0.0
 20
0.0
 30
0.0
  3
*Paper_Space0
  1

  0
ENDBLK
  5
25
330
23
100
AcDbEntity
  8
0
100
AcDbBlockEnd
  0
ENDSEC
  0
SECTION
  2
ENTITIES
  0
LINE
  5
7E
330
1F
100
AcDbEntity
  8
0
  6
Continuous
 62
     7
370
    25
100
AcDbLine
 10
634.1201796227
 20
424.8450165461
 30
0.0
 11
633.5201694661
 21
424.8450165461
 31
0.0
  0
LINE
  5
7F
330
1F
100
AcDbEntity
  8
0
  6
Continuous
 62
     7
370
    25
100
AcDbLine
 10
633.5201694661
 20
411.8450172092
 30
0.0
 11
634.1201796227
 21
411.8450172092
 31
0.0
  0
LINE
  5
80
330
1F
100
AcDbEntity
  8
0
  6
Continuous
 62
     7
370
    25
100
AcDbLine
 10
625.3201796704
 20
422.3450170676
 30
0.0
 11
622.2106798583
 21
422.3450170676
 31
0.0
  0
LINE
  5
81
330
1F
100
AcDbEntity
  8
0
  6
Continuous
 62
     7
370
    25
100
AcDbLine
 10
622.2106798583
 20
414.345017619
 30
0.0
 11
625.3201796704
 21
414.345017619
 31
0.0
  0
LINE
  5
82
330
1F
100
AcDbEntity
  8
0
  6
Continuous
 62
     7
370
    25
100
AcDbLine
 10
622.2106798583
 20
422.3450170676
 30
0.0
 11
621.5201749497
 21
421.654517747
 31
0.0
  0
LINE
  5
83
330
1F
100
AcDbEntity
  8
0
  6
Continuous
 62
     7
370
    25
100
AcDbLine
 10
621.5201749497
 20
415.0355169396
 30
0.0
 11
622.2106798583
 21
414.345017619
 31
0.0
  0
LINE
  5
84
330
1F
100
AcDbEntity
  8
0
  6
Continuous
 62
     7
370
    25
100
AcDbLine
 10
638.2396205359
 20
410.8394635687
 30
0.0
 11
638.820169776
 21
411.8450172092
 31
0.0
  0
LINE
  5
85
330
1F
100
AcDbEntity
  8
0
  6
Continuous
 62
     7
370
    25
100
AcDbLine
 10
638.820169776
 20
424.8450165461
 30
0.0
 11
638.2396205359
 21
425.8505711178
 31
0.0
  0
LINE
  5
86
330
1F
100
AcDbEntity
  8
0
  6
Continuous
 62
     7
370
    25
100
AcDbLine
 10
631.9201721841
 20
426.3450177233
 30
0.0
 11
630.320174902
 21
426.3450177233
 31
0.0
  0
LINE
  5
87
330
1F
100
AcDbEntity
  8
0
  6
Continuous
 62
     7
370
    25
100
AcDbLine
 10
630.320174902
 20
410.3450169633
 30
0.0
 11
631.9201721841
 21
410.3450169633
 31
0.0
  0
LINE
  5
88
330
1F
100
AcDbEntity
  8
0
  6
Continuous
 62
     7
370
    25
100
AcDbLine
 10
633.5201694661
 20
426.3450177233
 30
0.0
 11
631.9201721841
 21
426.3450177233
 31
0.0
  0
LINE
  5
89
330
1F
100
AcDbEntity
  8
0
  6
Continuous
 62
     7
370
    25
100
AcDbLine
 10
631.9201721841
 20
410.3450169633
 30
0.0
 11
633.5201694661
 21
410.3450169633
 31
0.0
  0
LINE
  5
8A
330
1F
100
AcDbEntity
  8
0
  6
Continuous
 62
     7
370
    25
100
AcDbLine
 10
178.3201827699
 20
449.3450159053
 30
0.0
 11
176.9201739722
 21
449.3450159053
 31
0.0
  0
LINE
  5
8B
330
1F
100
AcDbEntity
  8
0
  6
Continuous
 62
     7
370
    25
100
AcDbLine
 10
176.9201739722
 20
447.0450179498
 30
0.0
 11
172.3201706105
 21
447.0450179498
 31
0.0
  0
LINE
  5
8C
330
1F
100
AcDbEntity
  8
0
  6
Continuous
 62
     7
370
    25
100
AcDbLine
 10
172.3201706105
 20
421.6450163941
 30
0.0
 11
176.9201739722
 21
421.6450163941
 31
0.0
  0
LINE
  5
8D
330
1F
100
AcDbEntity
  8
0
  6
Continuous
 62
     7
370
    25
100
AcDbLine
 10
229.8201753789
 20
475.3450164418
 30
0.0
 11
230.3201838427
 21
475.3450164418
 31
0.0
  0
LINE
  5
8E
330
1F
100
AcDbEntity
  8
0
  6
Continuous
 62
     7
370
    25
100
AcDbLine
 10
229.8201753789
 20
475.3450164418
 30
0.0
 11
229.8201753789
 21
547.3450207929
 31
0.0
  0
LINE
  5
8F
330
1F
100
AcDbEntity
  8
0
  6
Continuous
 62
     7
370
    25
100
AcDbLine
 10
229.8201753789
 20
547.3450207929
 30
0.0
 11
230.3201838427
 21
547.3450207929
 31
0.0
  0
LINE
  5
90
330
1F
100
AcDbEntity
  8
0
  6
Continuous
 62
     7
370
    25
100
AcDbLine
 10
229.8201753789
 20
473.3450198392
 30
0.0
 11
230.3201838427
 21
473.3450198392
 31
0.0
  0
LINE
  5
91
330
1F
100
AcDbEntity
  8
0
  6
Continuous
 62
     7
370
    25
100
AcDbLine
 10
229.8201753789
 20
473.3450198392
 30
0.0
 11
229.8201753789
 21
475.3450164418
 31
0.0
  0
LINE
  5
92
330
1F
100
AcDbEntity
  8
0
  6
Continuous
 62
     7
370
    25
100
AcDbLine
 10
229.8201753789
 20
549.3450099449
 30
0.0
 11
230.3201838427
 21
549.3450099449
 31
0.0
  0
LINE
  5
93
330
1F
100
AcDbEntity
  8
0
  6
Continuous
 62
     7
370
    25
100
AcDbLine
 10
229.8201753789
 20
547.3450207929
 30
0.0
 11
229.8201753789
 21
549.3450099449
 31
0.0
  0
LINE
  5
94
330
1F
100
AcDbEntity
  8
0
  6
Continuous
 62
     7
370
    25
100
AcDbLine
 10
634.1201796227
 20
412.7158513139
 30
0.0
 11
634.1201796227
 21
414.5922409217
 31
0.0
  0
LINE
  5
95
330
1F
100
AcDbEntity
  8
0
  6
Continuous
 62
     7
370
    25
100
AcDbLine
 10
634.1201796227
 20
414.5922409217
 30
0.0
 11
638.2396205359
 21
414.5922409217
 31
0.0
  0
SPLINE
  5
96
330
1F
100
AcDbEntity
  8
0
  6
Continuous
 62
     7
370
    25
100
AcDbSpline
210
0.0
220
0.0
230
1.0
 70
     8
 71
     3
 72
    11
 73
     7
 74
     0
 42
0.000000001
 43
0.00000001
 40
0.0
 40
0.0
 40
0.0
 40
0.0
 40
0.2477113457795786
 40
0.4953656254490018
 40
0.7477051494791869
 40
1.0
 40
1.0
 40
1.0
 40
1.0
 10
638.2396205359374
 20
414.5922409216727
 30
0.0
 10
638.3227285229299
 20
414.440506232957
 30
0.0
 10
638.4889253510437
 20
414.1370718111649
 30
0.0
 10
638.6717070811709
 20
413.6708805901933
 30
0.0
 10
638.7959368236575
 20
413.196573901019
 30
0.0
 10
638.8120926019905
 20
412.8760827189437
 30
0.0
 10
638.8201697760497
 20
412.7158513138855
 30
0.0
  0
SPLINE
  5
97
330
1F
100
AcDbEntity
  8
0
  6
Continuous
 62
     7
370
    25
100
AcDbSpline
210
0.0
220
0.0
230
1.0
 70
     8
 71
     3
 72
    12
 73
     8
 74
     0
 42
0.000000001
 43
0.00000001
 40
0.0
 40
0.0
 40
0.0
 40
0.0
 40
0.0700427363449424
 40
0.3004148481118762
 40
0.530822791348567
 40
0.7653883537090735
 40
1.0
 40
1.0
 40
1.0
 40
1.0
 10
638.8201697760497
 20
412.7158513138855
 30
0.0
 10
638.8195169625419
 20
412.6713790019893
 30
0.0
 10
638.8167170309426
 20
412.4806362708986
 30
0.0
 10
638.7727444479966
 20
412.1438832304524
 30
0.0
 10
638.6528414456368
 20
411.7062074635691
 30
0.0
 10
638.476155517104
 20
411.2704848842529
 30
0.0
 10
638.3184706924114
 20
410.9831467483052
 30
0.0
 10
638.2396205359374
 20
410.8394635687436
 30
0.0
  0
LINE
  5
98
330
1F
100
AcDbEntity
  8
0
  6
Continuous
 62
     7
370
    25
100
AcDbLine
 10
634.1201796227
 20
410.8394635687
 30
0.0
 11
638.2396205359
 21
410.8394635687
 31
0.0
  0
LINE
  5
99
330
1F
100
AcDbEntity
  8
0
  6
Continuous
 62
     7
370
    25
100
AcDbLine
 10
634.1201796227
 20
410.8394635687
 30
0.0
 11
634.1201796227
 21
412.7158513139
 31
0.0
  0
SPLINE
  5
9A
330
1F
100
AcDbEntity
  8
0
  6
Continuous
 62
     7
370
    25
100
AcDbSpline
210
0.0
220
0.0
230
1.0
 70
     8
 71
     3
 72
    12
 73
     8
 74
     0
 42
0.000000001
 43
0.00000001
 40
0.0
 40
0.0
 40
0.0
 40
0.0
 40
0.1927570138234602
 40
0.3855271965373291
 40
0.5810819112281831
 40
0.7766618202037597
 40
1.0
 40
1.0
 40
1.0
 40
1.0
 10
638.8201697760497
 20
418.3450164119566
 30
0.0
 10
638.8154756794628
 20
418.1001934890643
 30
0.0
 10
638.8060871655949
 20
417.610530917319
 30
0.0
 10
638.732463456257
 20
416.8755233619083
 30
0.0
 10
638.6171294982978
 20
416.1427999445372
 30
0.0
 10
638.456093533779
 20
415.3787648473384
 30
0.0
 10
638.3148968511392
 20
414.8657467331707
 30
0.0
 10
638.2396205359374
 20
414.5922409216727
 30
0.0
  0
LINE
  5
9B
330
1F
100
AcDbEntity
  8
0
  6
Continuous
 62
     7
370
    25
100
AcDbLine
 10
638.820169776
 20
412.7158513139
 30
0.0
 11
638.820169776
 21
418.345016412
 31
0.0
  0
LINE
  5
9C
330
1F
100
AcDbEntity
  8
0
  6
Continuous
 62
     7
370
    25
100
AcDbLine
 10
634.1201796227
 20
418.345016412
 30
0.0
 11
634.1201796227
 21
422.0977937649
 31
0.0
  0
LINE
  5
9D
330
1F
100
AcDbEntity
  8
0
  6
Continuous
 62
     7
370
    25
100
AcDbLine
 10
634.1201796227
 20
422.0977937649
 30
0.0
 11
638.2396205359
 21
422.0977937649
 31
0.0
  0
SPLINE
  5
9E
330
1F
100
AcDbEntity
  8
0
  6
Continuous
 62
     7
370
    25
100
AcDbSpline
210
0.0
220
0.0
230
1.0
 70
     8
 71
     3
 72
    11
 73
     7
 74
     0
 42
0.000000001
 43
0.00000001
 40
0.0
 40
0.0
 40
0.0
 40
0.0
 40
0.3773847752974016
 40
0.5679117381592625
 40
0.7584171539780105
 40
1.0
 40
1.0
 40
1.0
 40
1.0
 10
638.2396205359374
 20
422.0977937648858
 30
0.0
 10
638.3634485741211
 20
421.6344539932505
 30
0.0
 10
638.5497925948684
 20
420.9371919087894
 30
0.0
 10
638.708205415847
 20
419.9866556192877
 30
0.0
 10
638.8003216147089
 20
419.2007243998837
 30
0.0
 10
638.8130520961477
 20
418.6518788685388
 30
0.0
 10
638.8201697760499
 20
418.3450164119566
 30
0.0
  0
LINE
  5
9F
330
1F
100
AcDbEntity
  8
0
  6
Continuous
 62
     7
370
    25
100
AcDbLine
 10
634.1201796227
 20
414.5922409217
 30
0.0
 11
634.1201796227
 21
418.345016412
 31
0.0
  0
SPLINE
  5
A0
330
1F
100
AcDbEntity
  8
0
  6
Continuous
 62
     7
370
    25
100
AcDbSpline
210
0.0
220
0.0
230
1.0
 70
     8
 71
     3
 72
    12
 73
     8
 74
     0
 42
0.000000001
 43
0.00000001
 40
0.0
 40
0.0
 40
0.0
 40
0.0
 40
0.0700426834151987
 40
0.3004147951658182
 40
0.5308228857333727
 40
0.7653883153281031
 40
0.9999999999999999
 40
0.9999999999999999
 40
0.9999999999999999
 40
0.9999999999999999
 10
638.8201697760497
 20
423.9741815100277
 30
0.0
 10
638.8195169624344
 20
423.9297091900899
 30
0.0
 10
638.8167170287511
 20
423.7389663139853
 30
0.0
 10
638.7727443918221
 20
423.4022136825779
 30
0.0
 10
638.6528415719812
 20
422.9645364123281
 30
0.0
 10
638.4761554147249
 20
422.5288152531006
 30
0.0
 10
638.3184706774567
 20
422.2414770369588
 30
0.0
 10
638.2396205359374
 20
422.0977937648858
 30
0.0
  0
LINE
  5
A1
330
1F
100
AcDbEntity
  8
0
  6
Continuous
 62
     7
370
    25
100
AcDbLine
 10
638.820169776
 20
418.345016412
 30
0.0
 11
638.820169776
 21
423.97418151
 31
0.0
  0
LINE
  5
A2
330
1F
100
AcDbEntity
  8
0
  6
Continuous
 62
     7
370
    25
100
AcDbLine
 10
634.1201796227
 20
423.97418151
 30
0.0
 11
634.1201796227
 21
425.8505711178
 31
0.0
  0
LINE
  5
A3
330
1F
100
AcDbEntity
  8
0
  6
Continuous
 62
     7
370
    25
100
AcDbLine
 10
634.1201796227
 20
425.8505711178
 30
0.0
 11
638.2396205359
 21
425.8505711178
 31
0.0
  0
SPLINE
  5
A4
330
1F
100
AcDbEntity
  8
0
  6
Continuous
 62
     7
370
    25
100
AcDbSpline
210
0.0
220
0.0
230
1.0
 70
     8
 71
     3
 72
    11
 73
     7
 74
     0
 42
0.000000001
 43
0.00000001
 40
0.0
 40
0.0
 40
0.0
 40
0.0
 40
0.247711269237528
 40
0.495365746992607
 40
0.7477052713148362
 40
1.0
 40
1.0
 40
1.0
 40
1.0
 10
638.2396205359374
 20
425.8505711178149
 30
0.0
 10
638.322728542578
 20
425.6988364754115
 30
0.0
 10
638.488925502116
 20
425.3954019780219
 30
0.0
 10
638.671706984274
 20
424.929209833634
 30
0.0
 10
638.795936818768
 20
424.4549031047408
 30
0.0
 10
638.8120926016642
 20
424.1344125584413
 30
0.0
 10
638.8201697760497
 20
423.9741815100277
 30
0.0
  0
LINE
  5
A5
330
1F
100
AcDbEntity
  8
0
  6
Continuous
 62
     7
370
    25
100
AcDbLine
 10
634.1201796227
 20
422.0977937649
 30
0.0
 11
634.1201796227
 21
423.97418151
 31
0.0
  0
LINE
  5
A6
330
1F
100
AcDbEntity
  8
0
  6
Continuous
 62
     7
370
    25
100
AcDbLine
 10
622.2106798583
 20
422.3450170676
 30
0.0
 11
622.2106798583
 21
414.345017619
 31
0.0
  0
LINE
  5
A7
330
1F
100
AcDbEntity
  8
0
  6
Continuous
 62
     7
370
    25
100
AcDbLine
 10
621.5201749497
 20
421.654517747
 30
0.0
 11
621.5201749497
 21
415.0355169396
 31
0.0
  0
LINE
  5
A8
330
1F
100
AcDbEntity
  8
0
  6
Continuous
 62
     7
370
    25
100
AcDbLine
 10
638.820169776
 20
411.8450172092
 30
0.0
 11
638.820169776
 21
412.7158513139
 31
0.0
  0
LINE
  5
A9
330
1F
100
AcDbEntity
  8
0
  6
Continuous
 62
     7
370
    25
100
AcDbLine
 10
638.820169776
 20
423.97418151
 30
0.0
 11
638.820169776
 21
424.8450165461
 31
0.0
  0
LINE
  5
AA
330
1F
100
AcDbEntity
  8
0
  6
Continuous
 62
     7
370
    25
100
AcDbLine
 10
631.9201721841
 20
426.3450177233
 30
0.0
 11
631.9201721841
 21
410.3450169633
 31
0.0
  0
LINE
  5
AB
330
1F
100
AcDbEntity
  8
0
  6
Continuous
 62
     7
370
    25
100
AcDbLine
 10
633.5201694661
 20
426.3450177233
 30
0.0
 11
633.5201694661
 21
410.3450169633
 31
0.0
  0
CIRCLE
  5
AC
330
1F
100
AcDbEntity
  8
0
  6
Continuous
 62
     7
370
    25
100
AcDbCircle
 10
200.3201768094
 20
434.345016859
 30
0.0
 40
12.69999999999999
  0
CIRCLE
  5
AD
330
1F
100
AcDbEntity
  8
0
  6
Continuous
 62
     7
370
    25
100
AcDbCircle
 10
200.3201768094
 20
434.345016859
 30
0.0
 40
10.75
  0
LINE
  5
AE
330
1F
100
AcDbEntity
  8
0
  6
Continuous
 62
     7
370
    25
100
AcDbLine
 10
211.0201700622
 20
403.3450167472
 30
0.0
 11
211.0201700622
 21
423.8326428304
 31
0.0
  0
LINE
  5
AF
330
1F
100
AcDbEntity
  8
0
  6
Continuous
 62
     7
370
    25
100
AcDbLine
 10
189.620180338
 20
423.8326428304
 30
0.0
 11
189.620180338
 21
403.3450167472
 31
0.0
  0
ARC
  5
B0
330
1F
100
AcDbEntity
  8
0
  6
Continuous
 62
     7
370
    25
100
AcDbCircle
 10
200.3201768094
 20
434.345016859
 30
0.0
 40
15.00000000000003
100
AcDbArc
 50
0.0
 51
180.0
  0
LINE
  5
B1
330
1F
100
AcDbEntity
  8
0
  6
Continuous
 62
     7
370
    25
100
AcDbLine
 10
215.3201832467
 20
403.3450167472
 30
0.0
 11
215.3201832467
 21
434.3450153093
 31
0.0
  0
LINE
  5
B2
330
1F
100
AcDbEntity
  8
0
  6
Continuous
 62
     7
370
    25
100
AcDbLine
 10
185.3201820546
 20
434.3450153093
 30
0.0
 11
185.3201820546
 21
403.3450167472
 31
0.0
  0
ARC
  5
B3
330
1F
100
AcDbEntity
  8
0
  6
Continuous
 62
     7
370
    25
100
AcDbCircle
 10
200.3201768094
 20
434.345016859
 30
0.0
 40
14.99999999999998
100
AcDbArc
 50
224.4932242308
 51
315.5067757692
  0
LINE
  5
B4
330
1F
100
AcDbEntity
  8
0
  6
Continuous
 62
     7
370
    25
100
AcDbLine
 10
176.9201739722
 20
403.3450167472
 30
0.0
 11
176.9201739722
 21
434.3450153093
 31
0.0
  0
LINE
  5
B5
330
1F
100
AcDbEntity
  8
0
  6
Continuous
 62
     7
370
    25
100
AcDbLine
 10
176.9201739722
 20
434.3450153093
 30
0.0
 11
178.3201827699
 21
434.3450153093
 31
0.0
  0
LINE
  5
B6
330
1F
100
AcDbEntity
  8
0
  6
Continuous
 62
     7
370
    25
100
AcDbLine
 10
176.9201739722
 20
434.3450153093
 30
0.0
 11
176.9201739722
 21
449.3450159053
 31
0.0
  0
LINE
  5
B7
330
1F
100
AcDbEntity
  8
0
  6
Continuous
 62
     7
370
    25
100
AcDbLine
 10
172.3201706105
 20
434.3450153093
 30
0.0
 11
172.3201706105
 21
447.0450179498
 31
0.0
  0
LINE
  5
B8
330
1F
100
AcDbEntity
  8
0
  6
Continuous
 62
     7
370
    25
100
AcDbLine
 10
172.3201706105
 20
421.6450163941
 30
0.0
 11
172.3201706105
 21
434.3450153093
 31
0.0
  0
LINE
  5
B9
330
1F
100
AcDbEntity
  8
0
  6
Continuous
 62
     7
370
    25
100
AcDbLine
 10
230.3201838427
 20
459.3450175444
 30
0.0
 11
178.3201827699
 21
459.3450175444
 31
0.0
  0
LINE
  5
BA
330
1F
100
AcDbEntity
  8
0
  6
Continuous
 62
     7
370
    25
100
AcDbLine
 10
178.3201827699
 20
459.3450175444
 30
0.0
 11
178.3201827699
 21
403.3450167472
 31
0.0
  0
ELLIPSE
  5
BB
330
1F
100
AcDbEntity
  8
0
  6
Continuous
 62
     7
370
    25
100
AcDbEllipse
 10
277.6919928623
 20
543.1873402092
 30
0.0
 11
-3.18478636122535
 21
25.95173607229344
 31
0.0
210
0.0
220
0.0
230
1.0
 40
0.4971999298
 41
6.222244688417116
 42
7.611996814427592
  0
LINE
  5
BC
330
1F
100
AcDbEntity
  8
0
  6
Continuous
 62
     7
370
    25
100
AcDbLine
 10
264.4015683824
 20
547.86881151
 30
0.0
 11
261.4671274119
 21
547.86881151
 31
0.0
  0
ELLIPSE
  5
BD
330
1F
100
AcDbEntity
  8
0
  6
Continuous
 62
     7
370
    25
100
AcDbEllipse
 10
277.6919928623
 20
543.1873402092
 30
0.0
 11
-3.366471884665202
 21
27.43222933547576
 31
0.0
210
0.0
220
0.0
230
1.0
 40
0.5789125998
 41
6.222244688417118
 42
7.611996814427595
  0
LINE
  5
BE
330
1F
100
AcDbEntity
  8
0
  6
Continuous
 62
     7
370
    25
100
AcDbLine
 10
275.2989663773
 20
569.1873365859
 30
0.0
 11
275.2989663773
 21
570.6873470764
 31
0.0
  0
LINE
  5
BF
330
1F
100
AcDbEntity
  8
0
  6
Continuous
 62
     7
370
    25
100
AcDbLine
 10
264.4015683824
 20
547.86881151
 30
0.0
 11
264.4015683824
 21
403.3450167472
 31
0.0
  0
LINE
  5
C0
330
1F
100
AcDbEntity
  8
0
  6
Continuous
 62
     7
370
    25
100
AcDbLine
 10
573.3413978511
 20
569.1873365859
 30
0.0
 11
275.2989663773
 21
569.1873365859
 31
0.0
  0
ELLIPSE
  5
C1
330
1F
100
AcDbEntity
  8
0
  6
Continuous
 62
     7
370
    25
100
AcDbEllipse
 10
570.9483607564
 20
543.1873402092
 30
0.0
 11
3.184786361225292
 21
25.95173607229344
 31
0.0
210
0.0
220
0.0
230
1.0
 40
0.4971999298
 41
4.954373799931592
 42
6.344125925942084
  0
LINE
  5
C2
330
1F
100
AcDbEntity
  8
0
  6
Continuous
 62
     7
370
    25
100
AcDbLine
 10
584.2387958461
 20
403.3450167472
 30
0.0
 11
584.2387958461
 21
547.86881151
 31
0.0
  0
LINE
  5
C3
330
1F
100
AcDbEntity
  8
0
  6
Continuous
 62
     7
370
    25
100
AcDbLine
 10
546.3201834851
 20
419.3450165759
 30
0.0
 11
546.3201834851
 21
403.3450167472
 31
0.0
  0
ARC
  5
C4
330
1F
100
AcDbEntity
  8
0
  6
Continuous
 62
     7
370
    25
100
AcDbCircle
 10
540.3201768094
 20
419.345016859
 30
0.0
 40
6.0
100
AcDbArc
 50
0.0
 51
90.0
  0
LINE
  5
C5
330
1F
100
AcDbEntity
  8
0
  6
Continuous
 62
     7
370
    25
100
AcDbLine
 10
308.3201780015
 20
425.3450175593
 30
0.0
 11
540.3201713258
 21
425.3450175593
 31
0.0
  0
ARC
  5
C6
330
1F
100
AcDbEntity
  8
0
  6
Continuous
 62
     7
370
    25
100
AcDbCircle
 10
308.3201768094
 20
419.345016859
 30
0.0
 40
6.0
100
AcDbArc
 50
90.0
 51
180.0
  0
LINE
  5
C7
330
1F
100
AcDbEntity
  8
0
  6
Continuous
 62
     7
370
    25
100
AcDbLine
 10
302.3201732927
 20
403.3450167472
 30
0.0
 11
302.3201732927
 21
419.3450165759
 31
0.0
  0
LINE
  5
C8
330
1F
100
AcDbEntity
  8
0
  6
Continuous
 62
     7
370
    25
100
AcDbLine
 10
584.2387958461
 20
403.3450167472
 30
0.0
 11
546.3201834851
 21
403.3450167472
 31
0.0
  0
LINE
  5
C9
330
1F
100
AcDbEntity
  8
0
  6
Continuous
 62
     7
370
    25
100
AcDbLine
 10
302.3201732927
 20
403.3450167472
 30
0.0
 11
264.4015683824
 21
403.3450167472
 31
0.0
  0
LINE
  5
CA
330
1F
100
AcDbEntity
  8
0
  6
Continuous
 62
     7
370
    25
100
AcDbLine
 10
261.4671274119
 20
403.3450167472
 30
0.0
 11
261.4671274119
 21
547.86881151
 31
0.0
  0
LINE
  5
CB
330
1F
100
AcDbEntity
  8
0
  6
Continuous
 62
     7
370
    25
100
AcDbLine
 10
275.2989663773
 20
570.6873470764
 30
0.0
 11
573.3413978511
 21
570.6873470764
 31
0.0
  0
LINE
  5
CC
330
1F
100
AcDbEntity
  8
0
  6
Continuous
 62
     7
370
    25
100
AcDbLine
 10
573.3413978511
 20
569.1873365859
 30
0.0
 11
573.3413978511
 21
570.6873470764
 31
0.0
  0
LINE
  5
CD
330
1F
100
AcDbEntity
  8
0
  6
Continuous
 62
     7
370
    25
100
AcDbLine
 10
304.3201773458
 20
419.3450165759
 30
0.0
 11
302.3201732927
 21
419.3450165759
 31
0.0
  0
LINE
  5
CE
330
1F
100
AcDbEntity
  8
0
  6
Continuous
 62
     7
370
    25
100
AcDbLine
 10
304.3201773458
 20
419.3450165759
 30
0.0
 11
304.3201773458
 21
403.3450167472
 31
0.0
  0
ARC
  5
CF
330
1F
100
AcDbEntity
  8
0
  6
Continuous
 62
     7
370
    25
100
AcDbCircle
 10
308.3201768094
 20
419.345016859
 30
0.0
 40
4.0
100
AcDbArc
 50
90.0
 51
180.0
  0
LINE
  5
D0
330
1F
100
AcDbEntity
  8
0
  6
Continuous
 62
     7
370
    25
100
AcDbLine
 10
308.3201780015
 20
423.3450172315
 30
0.0
 11
308.3201780015
 21
425.3450175593
 31
0.0
  0
LINE
  5
D1
330
1F
100
AcDbEntity
  8
0
  6
Continuous
 62
     7
370
    25
100
AcDbLine
 10
540.3201713258
 20
423.3450172315
 30
0.0
 11
308.3201780015
 21
423.3450172315
 31
0.0
  0
LINE
  5
D2
330
1F
100
AcDbEntity
  8
0
  6
Continuous
 62
     7
370
    25
100
AcDbLine
 10
540.3201713258
 20
423.3450172315
 30
0.0
 11
540.3201713258
 21
425.3450175593
 31
0.0
  0
LINE
  5
D3
330
1F
100
AcDbEntity
  8
0
  6
Continuous
 62
     7
370
    25
100
AcDbLine
 10
544.320179432
 20
403.3450167472
 30
0.0
 11
544.320179432
 21
419.3450165759
 31
0.0
  0
LINE
  5
D4
330
1F
100
AcDbEntity
  8
0
  6
Continuous
 62
     7
370
    25
100
AcDbLine
 10
544.320179432
 20
419.3450165759
 30
0.0
 11
546.3201834851
 21
419.3450165759
 31
0.0
  0
ARC
  5
D5
330
1F
100
AcDbEntity
  8
0
  6
Continuous
 62
     7
370
    25
100
AcDbCircle
 10
540.3201768094
 20
419.345016859
 30
0.0
 40
4.0
100
AcDbArc
 50
0.0
 51
90.0
  0
ELLIPSE
  5
D6
330
1F
100
AcDbEntity
  8
0
  6
Continuous
 62
     7
370
    25
100
AcDbEllipse
 10
570.9483607564
 20
543.1873402092
 30
0.0
 11
3.366471884665202
 21
27.43222933547588
 31
0.0
210
0.0
220
0.0
230
1.0
 40
0.5789125998
 41
4.954373799931591
 42
6.344125925942082
  0
LINE
  5
D7
330
1F
100
AcDbEntity
  8
0
  6
Continuous
 62
     7
370
    25
100
AcDbLine
 10
584.2387958461
 20
547.86881151
 30
0.0
 11
587.1732368165
 21
547.86881151
 31
0.0
  0
LINE
  5
D8
330
1F
100
AcDbEntity
  8
0
  6
Continuous
 62
     7
370
    25
100
AcDbLine
 10
587.1732368165
 20
547.86881151
 30
0.0
 11
587.1732368165
 21
403.3450167472
 31
0.0
  0
ELLIPSE
  5
D9
330
1F
100
AcDbEntity
  8
0
  6
Continuous
 62
     7
370
    25
100
AcDbEllipse
 10
271.9529656973
 20
589.9527120136
 30
0.0
 11
-5.026267410578328
 21
40.95733605751662
 31
0.0
210
0.0
220
0.0
230
1.0
 40
0.3877416046
 41
6.222244688417129
 42
7.611996814427596
  0
LINE
  5
DA
330
1F
100
AcDbEntity
  8
0
  6
Continuous
 62
     7
370
    25
100
AcDbLine
 10
267.9032220536
 20
630.9527093391
 30
0.0
 11
275.2989663773
 21
570.6873470764
 31
0.0
  0
LINE
  5
DB
330
1F
100
AcDbEntity
  8
0
  6
Continuous
 62
     7
370
    25
100
AcDbLine
 10
261.4671274119
 20
547.86881151
 30
0.0
 11
255.3303523951
 21
597.8752160291
 31
0.0
  0
ELLIPSE
  5
DC
330
1F
100
AcDbEntity
  8
0
  6
Continuous
 62
     7
370
    25
100
AcDbEllipse
 10
576.6873879215
 20
589.9527120136
 30
0.0
 11
5.026267410578384
 21
40.95733605751661
 31
0.0
210
0.0
220
0.0
230
1.0
 40
0.3877416046
 41
4.954373799931587
 42
6.344125925942078
  0
LINE
  5
DD
330
1F
100
AcDbEntity
  8
0
  6
Continuous
 62
     7
370
    25
100
AcDbLine
 10
593.3099969321
 20
597.8752160291
 30
0.0
 11
587.1732368165
 21
547.86881151
 31
0.0
  0
LINE
  5
DE
330
1F
100
AcDbEntity
  8
0
  6
Continuous
 62
     7
370
    25
100
AcDbLine
 10
573.3413978511
 20
570.6873470764
 30
0.0
 11
580.7371272736
 21
630.9527093391
 31
0.0
  0
LINE
  5
DF
330
1F
100
AcDbEntity
  8
0
  6
Continuous
 62
     7
370
    25
100
AcDbLine
 10
580.7371272736
 20
630.9527093391
 30
0.0
 11
267.9032220536
 21
630.9527093391
 31
0.0
  0
LINE
  5
E0
330
1F
100
AcDbEntity
  8
0
  6
Continuous
 62
     7
370
    25
100
AcDbLine
 10
255.3303523951
 20
597.8752160291
 30
0.0
 11
255.3303523951
 21
403.3450167472
 31
0.0
  0
LINE
  5
E1
330
1F
100
AcDbEntity
  8
0
  6
Continuous
 62
     7
370
    25
100
AcDbLine
 10
593.3099969321
 20
403.3450167472
 30
0.0
 11
593.3099969321
 21
597.8752160291
 31
0.0
  0
LINE
  5
E2
330
1F
100
AcDbEntity
  8
0
  6
Continuous
 62
     7
370
    25
100
AcDbLine
 10
540.3201713258
 20
420.3450167398
 30
0.0
 11
308.3201780015
 21
420.3450167398
 31
0.0
  0
LINE
  5
E3
330
1F
100
AcDbEntity
  8
0
  6
Continuous
 62
     7
370
    25
100
AcDbLine
 10
308.3201780015
 20
420.3450167398
 30
0.0
 11
308.3201780015
 21
423.3450172315
 31
0.0
  0
LINE
  5
E4
330
1F
100
AcDbEntity
  8
0
  6
Continuous
 62
     7
370
    25
100
AcDbLine
 10
540.3201713258
 20
420.3450167398
 30
0.0
 11
540.3201713258
 21
423.3450172315
 31
0.0
  0
ARC
  5
E5
330
1F
100
AcDbEntity
  8
0
  6
Continuous
 62
     7
370
    25
100
AcDbCircle
 10
308.3201768094
 20
419.345016859
 30
0.0
 40
1.0
100
AcDbArc
 50
90.0
 51
180.0
  0
LINE
  5
E6
330
1F
100
AcDbEntity
  8
0
  6
Continuous
 62
     7
370
    25
100
AcDbLine
 10
307.3201759749
 20
419.3450165759
 30
0.0
 11
304.3201773458
 21
419.3450165759
 31
0.0
  0
LINE
  5
E7
330
1F
100
AcDbEntity
  8
0
  6
Continuous
 62
     7
370
    25
100
AcDbLine
 10
307.3201759749
 20
419.3450165759
 30
0.0
 11
307.3201759749
 21
403.3450167472
 31
0.0
  0
ARC
  5
E8
330
1F
100
AcDbEntity
  8
0
  6
Continuous
 62
     7
370
    25
100
AcDbCircle
 10
540.3201768094
 20
419.345016859
 30
0.0
 40
1.0
100
AcDbArc
 50
0.0
 51
90.0
  0
LINE
  5
E9
330
1F
100
AcDbEntity
  8
0
  6
Continuous
 62
     7
370
    25
100
AcDbLine
 10
541.3201733523
 20
419.3450165759
 30
0.0
 11
544.320179432
 21
419.3450165759
 31
0.0
  0
LINE
  5
EA
330
1F
100
AcDbEntity
  8
0
  6
Continuous
 62
     7
370
    25
100
AcDbLine
 10
541.3201733523
 20
403.3450167472
 30
0.0
 11
541.3201733523
 21
419.3450165759
 31
0.0
  0
LINE
  5
EB
330
1F
100
AcDbEntity
  8
0
  6
Continuous
 62
     7
370
    25
100
AcDbLine
 10
249.4614704543
 20
403.3450167472
 30
0.0
 11
249.4614704543
 21
597.8752160291
 31
0.0
  0
LINE
  5
EC
330
1F
100
AcDbEntity
  8
0
  6
Continuous
 62
     7
370
    25
100
AcDbLine
 10
255.3303523951
 20
597.8752160291
 30
0.0
 11
249.4614704543
 21
597.8752160291
 31
0.0
  0
ELLIPSE
  5
ED
330
1F
100
AcDbEntity
  8
0
  6
Continuous
 62
     7
370
    25
100
AcDbEllipse
 10
271.9529656973
 20
589.9527120136
 30
0.0
 11
-5.389638457458148
 21
43.91832258388139
 31
0.0
210
0.0
220
0.0
230
1.0
 40
0.4971999298
 41
6.222244688417123
 42
7.611996814427595
  0
LINE
  5
EE
330
1F
100
AcDbEntity
  8
0
  6
Continuous
 62
     7
370
    25
100
AcDbLine
 10
267.9032220536
 20
630.9527093391
 30
0.0
 11
267.9032220536
 21
633.9527154188
 31
0.0
  0
LINE
  5
EF
330
1F
100
AcDbEntity
  8
0
  6
Continuous
 62
     7
370
    25
100
AcDbLine
 10
593.3099969321
 20
597.8752160291
 30
0.0
 11
599.178878873
 21
597.8752160291
 31
0.0
  0
LINE
  5
F0
330
1F
100
AcDbEntity
  8
0
  6
Continuous
 62
     7
370
    25
100
AcDbLine
 10
599.178878873
 20
597.8752160291
 30
0.0
 11
599.178878873
 21
403.3450167472
 31
0.0
  0
LINE
  5
F1
330
1F
100
AcDbEntity
  8
0
  6
Continuous
 62
     7
370
    25
100
AcDbLine
 10
580.7371272736
 20
630.9527093391
 30
0.0
 11
580.7371272736
 21
633.9527154188
 31
0.0
  0
ELLIPSE
  5
F2
330
1F
100
AcDbEntity
  8
0
  6
Continuous
 62
     7
370
    25
100
AcDbEllipse
 10
576.6873879215
 20
589.9527120136
 30
0.0
 11
5.389638457458092
 21
43.91832258388138
 31
0.0
210
0.0
220
0.0
230
1.0
 40
0.4971999298
 41
4.954373799931587
 42
6.344125925942071
  0
LINE
  5
F3
330
1F
100
AcDbEntity
  8
0
  6
Continuous
 62
     7
370
    25
100
AcDbLine
 10
267.9032220536
 20
633.9527154188
 30
0.0
 11
580.7371272736
 21
633.9527154188
 31
0.0
  0
LINE
  5
F4
330
1F
100
AcDbEntity
  8
0
  6
Continuous
 62
     7
370
    25
100
AcDbLine
 10
230.3201838427
 20
403.3450167472
 30
0.0
 11
230.3201838427
 21
718.3450097064
 31
0.0
  0
LINE
  5
F5
330
1F
100
AcDbEntity
  8
0
  6
Continuous
 62
     7
370
    25
100
AcDbLine
 10
230.3201838427
 20
718.3450097064
 30
0.0
 11
618.3201803857
 21
718.3450097064
 31
0.0
  0
LINE
  5
F6
330
1F
100
AcDbEntity
  8
0
  6
Continuous
 62
     7
370
    25
100
AcDbLine
 10
618.3201803857
 20
403.3450167472
 30
0.0
 11
618.3201803857
 21
718.3450097064
 31
0.0
  0
LINE
  5
F7
330
1F
100
AcDbEntity
  8
0
  6
Continuous
 62
     7
370
    25
100
AcDbLine
 10
180.3201719218
 20
403.3450167472
 30
0.0
 11
180.3201719218
 21
398.345016859
 31
0.0
  0
LINE
  5
F8
330
1F
100
AcDbEntity
  8
0
  6
Continuous
 62
     7
370
    25
100
AcDbLine
 10
180.3201719218
 20
398.345016859
 30
0.0
 11
176.3201787167
 21
398.345016859
 31
0.0
  0
LINE
  5
F9
330
1F
100
AcDbEntity
  8
0
  6
Continuous
 62
     7
370
    25
100
AcDbLine
 10
176.3201787167
 20
398.345016859
 30
0.0
 11
176.3201787167
 21
403.3450167472
 31
0.0
  0
LINE
  5
FA
330
1F
100
AcDbEntity
  8
0
  6
Continuous
 62
     7
370
    25
100
AcDbLine
 10
176.3201787167
 20
403.3450167472
 30
0.0
 11
180.3201719218
 21
403.3450167472
 31
0.0
  0
LINE
  5
FB
330
1F
100
AcDbEntity
  8
0
  6
Continuous
 62
     7
370
    25
100
AcDbLine
 10
630.320174902
 20
403.3450167472
 30
0.0
 11
630.320174902
 21
398.345016859
 31
0.0
  0
LINE
  5
FC
330
1F
100
AcDbEntity
  8
0
  6
Continuous
 62
     7
370
    25
100
AcDbLine
 10
630.320174902
 20
398.345016859
 30
0.0
 11
626.320181697
 21
398.345016859
 31
0.0
  0
LINE
  5
FD
330
1F
100
AcDbEntity
  8
0
  6
Continuous
 62
     7
370
    25
100
AcDbLine
 10
626.320181697
 20
398.345016859
 30
0.0
 11
626.320181697
 21
403.3450167472
 31
0.0
  0
LINE
  5
FE
330
1F
100
AcDbEntity
  8
0
  6
Continuous
 62
     7
370
    25
100
AcDbLine
 10
626.320181697
 20
403.3450167472
 30
0.0
 11
630.320174902
 21
403.3450167472
 31
0.0
  0
LINE
  5
FF
330
1F
100
AcDbEntity
  8
0
  6
Continuous
 62
     7
370
    25
100
AcDbLine
 10
180.3201719218
 20
398.345016859
 30
0.0
 11
626.320181697
 21
398.345016859
 31
0.0
  0
LINE
  5
100
330
1F
100
AcDbEntity
  8
0
  6
Continuous
 62
     7
370
    25
100
AcDbLine
 10
180.3201719218
 20
403.3450167472
 30
0.0
 11
626.320181697
 21
403.3450167472
 31
0.0
  0
LINE
  5
101
330
1F
100
AcDbEntity
  8
0
  6
Continuous
 62
     7
370
    25
100
AcDbLine
 10
630.320174902
 20
424.3450173954
 30
0.0
 11
625.3201796704
 21
424.3450173954
 31
0.0
  0
LINE
  5
102
330
1F
100
AcDbEntity
  8
0
  6
Continuous
 62
     7
370
    25
100
AcDbLine
 10
625.3201796704
 20
429.3450163524
 30
0.0
 11
630.320174902
 21
429.3450163524
 31
0.0
  0
LINE
  5
103
330
1F
100
AcDbEntity
  8
0
  6
Continuous
 62
     7
370
    25
100
AcDbLine
 10
630.320174902
 20
429.3450163524
 30
0.0
 11
630.320174902
 21
424.3450173954
 31
0.0
  0
LINE
  5
104
330
1F
100
AcDbEntity
  8
0
  6
Continuous
 62
     7
370
    25
100
AcDbLine
 10
625.3201796704
 20
424.3450173954
 30
0.0
 11
625.3201796704
 21
429.3450163524
 31
0.0
  0
LINE
  5
105
330
1F
100
AcDbEntity
  8
0
  6
Continuous
 62
     7
370
    25
100
AcDbLine
 10
625.3201796704
 20
408.3450166355
 30
0.0
 11
630.320174902
 21
408.3450166355
 31
0.0
  0
LINE
  5
106
330
1F
100
AcDbEntity
  8
0
  6
Continuous
 62
     7
370
    25
100
AcDbLine
 10
630.320174902
 20
424.3450173954
 30
0.0
 11
630.320174902
 21
408.3450166355
 31
0.0
  0
LINE
  5
107
330
1F
100
AcDbEntity
  8
0
  6
Continuous
 62
     7
370
    25
100
AcDbLine
 10
625.3201796704
 20
424.3450173954
 30
0.0
 11
625.3201796704
 21
408.3450166355
 31
0.0
  0
ARC
  5
108
330
1F
100
AcDbEntity
  8
0
  6
Continuous
 62
     7
370
    25
100
AcDbCircle
 10
620.3201768094
 20
408.345016859
 30
0.0
 40
10.0
100
AcDbArc
 50
330.0
 51
0.0
  0
ARC
  5
109
330
1F
100
AcDbEntity
  8
0
  6
Continuous
 62
     7
370
    25
100
AcDbCircle
 10
620.3201768094
 20
408.345016859
 30
0.0
 40
5.0
100
AcDbArc
 50
270.0
 51
0.0
  0
LINE
  5
10A
330
1F
100
AcDbEntity
  8
0
  6
Continuous
 62
     7
370
    25
100
AcDbLine
 10
822.4184077342
 20
683.9450234393
 30
0.0
 11
822.4184077342
 21
683.3450132827
 31
0.0
  0
LINE
  5
10B
330
1F
100
AcDbEntity
  8
0
  6
Continuous
 62
     7
370
    25
100
AcDbLine
 10
840.4184069593
 20
683.3450132827
 30
0.0
 11
840.4184069593
 21
683.9450234393
 31
0.0
  0
ELLIPSE
  5
10C
330
1F
100
AcDbEntity
  8
0
  6
Continuous
 62
     7
370
    25
100
AcDbEllipse
 10
803.4184073468
 20
411.745016859
 30
0.0
 11
-6.0
 21
0.0
 31
0.0
210
0.0
220
0.0
230
1.0
 40
0.1666666667
 41
5.0523186880734
 42
5.335215565796721
  0
LINE
  5
10D
330
1F
100
AcDbEntity
  8
0
  6
Continuous
 62
     7
370
    25
100
AcDbLine
 10
806.9184079875
 20
410.0562957893
 30
0.0
 11
806.9184079875
 21
412.5572498734
 31
0.0
  0
LINE
  5
10E
330
1F
100
AcDbEntity
  8
0
  6
Continuous
 62
     7
370
    25
100
AcDbLine
 10
806.9184079875
 20
406.7450165595
 30
0.0
 11
806.9184079875
 21
409.2517495002
 31
0.0
  0
LINE
  5
10F
330
1F
100
AcDbEntity
  8
0
  6
Continuous
 62
     7
370
    25
100
AcDbLine
 10
799.9184068401
 20
409.2517495002
 30
0.0
 11
799.9184068401
 21
406.7450165595
 31
0.0
  0
LINE
  5
110
330
1F
100
AcDbEntity
  8
0
  6
Continuous
 62
     7
370
    25
100
AcDbLine
 10
799.9184068401
 20
412.5572498734
 30
0.0
 11
799.9184068401
 21
410.0562957893
 31
0.0
  0
ELLIPSE
  5
111
330
1F
100
AcDbEntity
  8
0
  6
Continuous
 62
     7
370
    25
100
AcDbEllipse
 10
803.4184073468
 20
411.745016859
 30
0.0
 11
6.0
 21
0.0
 31
0.0
210
0.0
220
0.0
230
1.0
 40
0.1666666667
 41
0.9479697413828644
 42
1.189907282870252
  0
ELLIPSE
  5
112
330
1F
100
AcDbEntity
  8
0
  6
Continuous
 62
     7
370
    25
100
AcDbEllipse
 10
859.4184073468
 20
411.745016859
 30
0.0
 11
-6.0
 21
0.0
 31
0.0
210
0.0
220
0.0
230
1.0
 40
0.1666666667
 41
4.951247187291097
 42
5.335215565796752
  0
LINE
  5
113
330
1F
100
AcDbEntity
  8
0
  6
Continuous
 62
     7
370
    25
100
AcDbLine
 10
862.9184078534
 20
410.6315299715
 30
0.0
 11
862.9184078534
 21
412.5572498734
 31
0.0
  0
LINE
  5
114
330
1F
100
AcDbEntity
  8
0
  6
Continuous
 62
     7
370
    25
100
AcDbLine
 10
862.9184078534
 20
406.7450165595
 30
0.0
 11
862.9184078534
 21
408.6450170572
 31
0.0
  0
LINE
  5
115
330
1F
100
AcDbEntity
  8
0
  6
Continuous
 62
     7
370
    25
100
AcDbLine
 10
855.918406706
 20
408.6450170572
 30
0.0
 11
855.918406706
 21
406.7450165595
 31
0.0
  0
LINE
  5
116
330
1F
100
AcDbEntity
  8
0
  6
Continuous
 62
     7
370
    25
100
AcDbLine
 10
855.918406706
 20
412.5572498734
 30
0.0
 11
855.918406706
 21
410.6315299715
 31
0.0
  0
ELLIPSE
  5
117
330
1F
100
AcDbEntity
  8
0
  6
Continuous
 62
     7
370
    25
100
AcDbEllipse
 10
859.4184073468
 20
411.745016859
 30
0.0
 11
6.0
 21
0.0
 31
0.0
210
0.0
220
0.0
230
1.0
 40
0.1666666667
 41
0.9479697413828951
 42
1.332572028298042
  0
LINE
  5
118
330
1F
100
AcDbEntity
  8
0
  6
Continuous
 62
     7
370
    25
100
AcDbLine
 10
819.4184072424
 20
680.8450156669
 30
0.0
 11
819.4184072424
 21
678.3450180511
 31
0.0
  0
LINE
  5
119
330
1F
100
AcDbEntity
  8
0
  6
Continuous
 62
     7
370
    25
100
AcDbLine
 10
843.4184074511
 20
678.3450180511
 30
0.0
 11
843.4184074511
 21
680.8450156669
 31
0.0
  0
LINE
  5
11A
330
1F
100
AcDbEntity
  8
0
  6
Continuous
 62
     7
370
    25
100
AcDbLine
 10
819.4184072424
 20
683.3450132827
 30
0.0
 11
819.4184072424
 21
680.8450156669
 31
0.0
  0
LINE
  5
11B
330
1F
100
AcDbEntity
  8
0
  6
Continuous
 62
     7
370
    25
100
AcDbLine
 10
843.4184074511
 20
680.8450156669
 30
0.0
 11
843.4184074511
 21
683.3450132827
 31
0.0
  0
LINE
  5
11C
330
1F
100
AcDbEntity
  8
0
  6
Continuous
 62
     7
370
    25
100
AcDbLine
 10
783.4184069295
 20
449.3450159053
 30
0.0
 11
782.0184055825
 21
449.3450159053
 31
0.0
  0
LINE
  5
11D
330
1F
100
AcDbEntity
  8
0
  6
Continuous
 62
     7
370
    25
100
AcDbLine
 10
782.0184055825
 20
447.0450179498
 30
0.0
 11
777.418405946
 21
447.0450179498
 31
0.0
  0
LINE
  5
11E
330
1F
100
AcDbEntity
  8
0
  6
Continuous
 62
     7
370
    25
100
AcDbLine
 10
777.418405946
 20
421.6450163941
 30
0.0
 11
782.0184055825
 21
421.6450163941
 31
0.0
  0
LINE
  5
11F
330
1F
100
AcDbEntity
  8
0
  6
Continuous
 62
     7
370
    25
100
AcDbLine
 10
880.8184091111
 20
449.3450159053
 30
0.0
 11
879.418407764
 21
449.3450159053
 31
0.0
  0
LINE
  5
120
330
1F
100
AcDbEntity
  8
0
  6
Continuous
 62
     7
370
    25
100
AcDbLine
 10
880.8184091111
 20
421.6450163941
 30
0.0
 11
885.4184087475
 21
421.6450163941
 31
0.0
  0
LINE
  5
121
330
1F
100
AcDbEntity
  8
0
  6
Continuous
 62
     7
370
    25
100
AcDbLine
 10
885.4184087475
 20
447.0450179498
 30
0.0
 11
880.8184091111
 21
447.0450179498
 31
0.0
  0
LINE
  5
122
330
1F
100
AcDbEntity
  8
0
  6
Continuous
 62
     7
370
    25
100
AcDbLine
 10
864.5722057779
 20
676.5450173835
 30
0.0
 11
864.5722057779
 21
676.345013998
 31
0.0
  0
LINE
  5
123
330
1F
100
AcDbEntity
  8
0
  6
Continuous
 62
     7
370
    25
100
AcDbLine
 10
867.418405797
 20
549.3450099449
 30
0.0
 11
795.4184088965
 21
549.3450099449
 31
0.0
  0
LINE
  5
124
330
1F
100
AcDbEntity
  8
0
  6
Continuous
 62
     7
370
    25
100
AcDbLine
 10
869.4184061249
 20
475.3450164418
 30
0.0
 11
869.4184061249
 21
547.3450207929
 31
0.0
  0
LINE
  5
125
330
1F
100
AcDbEntity
  8
0
  6
Continuous
 62
     7
370
    25
100
AcDbLine
 10
795.4184088965
 20
473.3450198392
 30
0.0
 11
867.418405797
 21
473.3450198392
 31
0.0
  0
ARC
  5
126
330
1F
100
AcDbEntity
  8
0
  6
Continuous
 62
     7
370
    25
100
AcDbCircle
 10
795.4184073468
 20
475.345016859
 30
0.0
 40
2.0
100
AcDbArc
 50
180.0
 51
270.0
  0
LINE
  5
127
330
1F
100
AcDbEntity
  8
0
  6
Continuous
 62
     7
370
    25
100
AcDbLine
 10
793.4184085686
 20
547.3450207929
 30
0.0
 11
793.4184085686
 21
475.3450164418
 31
0.0
  0
ARC
  5
128
330
1F
100
AcDbEntity
  8
0
  6
Continuous
 62
     7
370
    25
100
AcDbCircle
 10
795.4184073468
 20
547.345016859
 30
0.0
 40
2.0
100
AcDbArc
 50
90.0
 51
180.0
  0
ARC
  5
129
330
1F
100
AcDbEntity
  8
0
  6
Continuous
 62
     7
370
    25
100
AcDbCircle
 10
867.4184073468
 20
547.345016859
 30
0.0
 40
2.0
100
AcDbArc
 50
0.0
 51
90.0
  0
ARC
  5
12A
330
1F
100
AcDbEntity
  8
0
  6
Continuous
 62
     7
370
    25
100
AcDbCircle
 10
867.4184073468
 20
475.345016859
 30
0.0
 40
2.0
100
AcDbArc
 50
270.0
 51
0.0
  0
LINE
  5
12B
330
1F
100
AcDbEntity
  8
0
  6
Continuous
 62
     7
370
    25
100
AcDbLine
 10
826.9184075405
 20
683.9450234393
 30
0.0
 11
822.4184077342
 21
683.9450234393
 31
0.0
  0
LINE
  5
12C
330
1F
100
AcDbEntity
  8
0
  6
Continuous
 62
     7
370
    25
100
AcDbLine
 10
822.4184077342
 20
683.9450234393
 30
0.0
 11
822.4184077342
 21
690.0411778907
 31
0.0
  0
SPLINE
  5
12D
330
1F
100
AcDbEntity
  8
0
  6
Continuous
 62
     7
370
    25
100
AcDbSpline
210
0.0
220
0.0
230
1.0
 70
     8
 71
     3
 72
    11
 73
     7
 74
     0
 42
0.000000001
 43
0.00000001
 40
0.0
 40
0.0
 40
0.0
 40
0.0
 40
0.2477111010697855
 40
0.4953652191589288
 40
0.7477050456898253
 40
1.0
 40
1.0
 40
1.0
 40
1.0
 10
822.4184077341829
 20
690.0411778907145
 30
0.0
 10
822.782301479145
 20
690.1562422739396
 30
0.0
 10
823.5100052596589
 20
690.3863445712021
 30
0.0
 10
824.6280344762097
 20
690.6394404153995
 30
0.0
 10
825.7655289096211
 20
690.8114498459272
 30
0.0
 10
826.5341374451247
 20
690.8338213651726
 30
0.0
 10
826.9184075404678
 20
690.8450061301554
 30
0.0
  0
SPLINE
  5
12E
330
1F
100
AcDbEntity
  8
0
  6
Continuous
 62
     7
370
    25
100
AcDbSpline
210
0.0
220
0.0
230
1.0
 70
     8
 71
     3
 72
    12
 73
     8
 74
     0
 42
0.000000001
 43
0.00000001
 40
0.0
 40
0.0
 40
0.0
 40
0.0
 40
0.0700564116890736
 40
0.3004251947804619
 40
0.5308297405148737
 40
0.7653924744317018
 40
0.9999999999999999
 40
0.9999999999999999
 40
0.9999999999999999
 40
0.9999999999999999
 10
826.9184075404678
 20
690.8450061301554
 30
0.0
 10
827.0250825468371
 20
690.8440999496514
 30
0.0
 10
827.4825404553148
 20
690.8402139462457
 30
0.0
 10
828.2901624631342
 20
690.7793305505644
 30
0.0
 10
829.3397936569596
 20
690.6133188471848
 30
0.0
 10
830.384731167636
 20
690.3686536388875
 30
0.0
 10
831.0738266910801
 20
690.1503434207925
 30
0.0
 10
831.4184073467526
 20
690.0411778907145
 30
0.0
  0
LINE
  5
12F
330
1F
100
AcDbEntity
  8
0
  6
Continuous
 62
     7
370
    25
100
AcDbLine
 10
831.4184073468
 20
683.9450234393
 30
0.0
 11
831.4184073468
 21
690.0411778907
 31
0.0
  0
LINE
  5
130
330
1F
100
AcDbEntity
  8
0
  6
Continuous
 62
     7
370
    25
100
AcDbLine
 10
831.4184073468
 20
683.9450234393
 30
0.0
 11
826.9184075405
 21
683.9450234393
 31
0.0
  0
SPLINE
  5
131
330
1F
100
AcDbEntity
  8
0
  6
Continuous
 62
     7
370
    25
100
AcDbSpline
210
0.0
220
0.0
230
1.0
 70
     8
 71
     3
 72
    12
 73
     8
 74
     0
 42
0.000000001
 43
0.00000001
 40
0.0
 40
0.0
 40
0.0
 40
0.0
 40
0.1959925372918465
 40
0.3956244454193796
 40
0.5952305604354191
 40
0.7976230885899029
 40
1.0
 40
1.0
 40
1.0
 40
1.0
 10
831.4184073467526
 20
690.0411778907145
 30
0.0
 10
831.706086584734
 20
690.1330987186634
 30
0.0
 10
832.2867869550528
 20
690.3186472455728
 30
0.0
 10
833.1730069730787
 20
690.5413471898288
 30
0.0
 10
834.0773971572329
 20
690.7123367355854
 30
0.0
 10
834.9937136579302
 20
690.8234473732324
 30
0.0
 10
835.6101839161847
 20
690.8378200626893
 30
0.0
 10
835.9184071530376
 20
690.8450061301554
 30
0.0
  0
LINE
  5
132
330
1F
100
AcDbEntity
  8
0
  6
Continuous
 62
     7
370
    25
100
AcDbLine
 10
835.918407153
 20
690.8450061302
 30
0.0
 11
826.9184075405
 21
690.8450061302
 31
0.0
  0
SPLINE
  5
133
330
1F
100
AcDbEntity
  8
0
  6
Continuous
 62
     7
370
    25
100
AcDbSpline
210
0.0
220
0.0
230
1.0
 70
     8
 71
     3
 72
    12
 73
     8
 74
     0
 42
0.000000001
 43
0.00000001
 40
0.0
 40
0.0
 40
0.0
 40
0.0
 40
0.2200722468037818
 40
0.4139120706777293
 40
0.607775286275167
 40
0.8038757806947315
 40
1.0
 40
1.0
 40
1.0
 40
1.0
 10
835.9184071530376
 20
690.8450061301554
 30
0.0
 10
836.253602284022
 20
690.8367169477086
 30
0.0
 10
836.8840375740776
 20
690.8211266462483
 30
0.0
 10
837.8049784246699
 20
690.704180466922
 30
0.0
 10
838.6823337259165
 20
690.5369428204941
 30
0.0
 10
839.5548311723403
 20
690.3171055171676
 30
0.0
 10
840.1305367559033
 20
690.1331574750815
 30
0.0
 10
840.4184069593225
 20
690.0411778907145
 30
0.0
  0
LINE
  5
134
330
1F
100
AcDbEntity
  8
0
  6
Continuous
 62
     7
370
    25
100
AcDbLine
 10
840.4184069593
 20
683.9450234393
 30
0.0
 11
840.4184069593
 21
690.0411778907
 31
0.0
  0
LINE
  5
135
330
1F
100
AcDbEntity
  8
0
  6
Continuous
 62
     7
370
    25
100
AcDbLine
 10
840.4184069593
 20
683.9450234393
 30
0.0
 11
835.918407153
 21
683.9450234393
 31
0.0
  0
LINE
  5
136
330
1F
100
AcDbEntity
  8
0
  6
Continuous
 62
     7
370
    25
100
AcDbLine
 10
835.918407153
 20
683.9450234393
 30
0.0
 11
831.4184073468
 21
683.9450234393
 31
0.0
  0
SPLINE
  5
137
330
1F
100
AcDbEntity
  8
0
  6
Continuous
 62
     7
370
    25
100
AcDbSpline
210
0.0
220
0.0
230
1.0
 70
    24
 71
     3
 72
    12
 73
     8
 74
     0
 42
0.000000001
 43
0.00000001
 40
0.0
 40
0.0
 40
0.0
 40
0.0
 40
0.0700564779984463
 40
0.3004261110561873
 40
0.5308301556547109
 40
0.7653933469562295
 40
1.0
 40
1.0
 40
1.0
 40
1.0
 10
822.4184077341829
 20
690.8450061301554
 30
0.0
 10
822.4184077341829
 20
690.8440999415384
 30
0.0
 10
822.4184077341829
 20
690.8402138951673
 30
0.0
 10
822.4184077341829
 20
690.7793311252681
 30
0.0
 10
822.4184077341829
 20
690.6133181489454
 30
0.0
 10
822.4184077341829
 20
690.3686546801717
 30
0.0
 10
822.4184077341829
 20
690.1503435616472
 30
0.0
 10
822.4184077341829
 20
690.0411778907145
 30
0.0
  0
LINE
  5
138
330
1F
100
AcDbEntity
  8
0
  6
Continuous
 62
     7
370
    25
100
AcDbLine
 10
826.9184075405
 20
690.8450061302
 30
0.0
 11
822.4184077342
 21
690.8450061302
 31
0.0
  0
SPLINE
  5
139
330
1F
100
AcDbEntity
  8
0
  6
Continuous
 62
     7
370
    25
100
AcDbSpline
210
0.0
220
0.0
230
1.0
 70
    24
 71
     3
 72
    11
 73
     7
 74
     0
 42
0.000000001
 43
0.00000001
 40
0.0
 40
0.0
 40
0.0
 40
0.0
 40
0.2477091011133895
 40
0.4953648075039782
 40
0.7477046932967708
 40
1.0
 40
1.0
 40
1.0
 40
1.0
 10
840.4184069593225
 20
690.0411778907145
 30
0.0
 10
840.4184069593225
 20
690.1562426134662
 30
0.0
 10
840.4184069593225
 20
690.3863472562921
 30
0.0
 10
840.4184069593225
 20
690.6394392186155
 30
0.0
 10
840.4184069593225
 20
690.8114501292888
 30
0.0
 10
840.4184069593225
 20
690.8338214552884
 30
0.0
 10
840.4184069593225
 20
690.8450061301554
 30
0.0
  0
LINE
  5
13A
330
1F
100
AcDbEntity
  8
0
  6
Continuous
 62
     7
370
    25
100
AcDbLine
 10
835.918407153
 20
690.8450061302
 30
0.0
 11
840.4184069593
 21
690.8450061302
 31
0.0
  0
LINE
  5
13B
330
1F
100
AcDbEntity
  8
0
  6
Continuous
 62
     7
370
    25
100
AcDbLine
 10
799.9184068401
 20
412.5572498734
 30
0.0
 11
805.8231447001
 21
412.5572498734
 31
0.0
  0
SPLINE
  5
13C
330
1F
100
AcDbEntity
  8
0
  6
Continuous
 62
     7
370
    25
100
AcDbSpline
210
0.0
220
0.0
230
1.0
 70
     8
 71
     3
 72
    12
 73
     8
 74
     0
 42
0.000000001
 43
0.00000001
 40
0.0
 40
0.0
 40
0.0
 40
0.0
 40
0.0586211399989456
 40
0.2814021485067347
 40
0.5045399748382035
 40
0.7272944860937812
 40
1.0
 40
1.0
 40
1.0
 40
1.0
 10
805.8231447000776
 20
412.5572498733962
 30
0.0
 10
805.7374705913335
 20
412.5681298091725
 30
0.0
 10
805.3262046508825
 20
412.620357338407
 30
0.0
 10
804.586117351855
 20
412.6841886238575
 30
0.0
 10
803.6036251382113
 20
412.7277669719577
 30
0.0
 10
802.546781527824
 20
412.738553977986
 30
0.0
 10
801.8188067124962
 20
412.7042213822863
 30
0.0
 10
801.4181230325971
 20
412.6853244225348
 30
0.0
  0
LINE
  5
13D
330
1F
100
AcDbEntity
  8
0
  6
Continuous
 62
     7
370
    25
100
AcDbLine
 10
806.823144864
 20
411.5450167875
 30
0.0
 11
806.823144864
 21
412.5572498734
 31
0.0
  0
LINE
  5
13E
330
1F
100
AcDbEntity
  8
0
  6
Continuous
 62
     7
370
    25
100
AcDbLine
 10
806.823144864
 20
412.5572498734
 30
0.0
 11
806.9184079875
 21
412.5572498734
 31
0.0
  0
LINE
  5
13F
330
1F
100
AcDbEntity
  8
0
  6
Continuous
 62
     7
370
    25
100
AcDbLine
 10
805.8231447001
 20
412.5572498734
 30
0.0
 11
805.8231447001
 21
411.5450167875
 31
0.0
  0
LINE
  5
140
330
1F
100
AcDbEntity
  8
0
  6
Continuous
 62
     7
370
    25
100
AcDbLine
 10
805.8231447001
 20
411.5450167875
 30
0.0
 11
806.823144864
 21
411.5450167875
 31
0.0
  0
SPLINE
  5
141
330
1F
100
AcDbEntity
  8
0
  6
Continuous
 62
     7
370
    25
100
AcDbSpline
210
0.0
220
0.0
230
1.0
 70
    11
 71
     3
 72
    26
 73
    22
 74
     0
 42
0.000000001
 43
0.00000001
 40
0.0
 40
0.0
 40
0.0
 40
0.0
 40
0.0521820913233565
 40
0.1043113425523516
 40
0.1577980068961168
 40
0.2122583560671188
 40
0.2652866543446104
 40
0.3167943257564577
 40
0.368880330023279
 40
0.4227920504838739
 40
0.4771110221836783
 40
0.5295752614008677
 40
0.5808567798400248
 40
0.6334199038987008
 40
0.6877460857306865
 40
0.7416320914862525
 40
0.7936314654210926
 40
0.8451830700590155
 40
0.8982775566445147
 40
0.9527410982473654
 40
1.0
 40
1.0
 40
1.0
 40
1.0
 10
803.3205878098283
 20
409.6450172210897
 30
0.0
 10
803.3316604959682
 20
409.5351559822082
 30
0.0
 10
803.3537946559381
 20
409.3155447510065
 30
0.0
 10
803.524286416121
 20
409.0215451692227
 30
0.0
 10
803.7748416817033
 20
408.7918432042105
 30
0.0
 10
804.0880743357161
 20
408.6552332484854
 30
0.0
 10
804.4173743115732
 20
408.6311116150523
 30
0.0
 10
804.7223051099361
 20
408.7168507150549
 30
0.0
 10
804.9783024523857
 20
408.9006008240485
 30
0.0
 10
805.164705075407
 20
409.1689446950273
 30
0.0
 10
805.2595188607514
 20
409.4942416250461
 30
0.0
 10
805.2530878195995
 20
409.8321450997544
 30
0.0
 10
805.1518793062679
 20
410.1439531983087
 30
0.0
 10
804.9635891520907
 20
410.4046031630568
 30
0.0
 10
804.6977211327119
 20
410.5864664764457
 30
0.0
 10
804.3812061845655
 20
410.6622691697815
 30
0.0
 10
804.0557139219919
 20
410.624645871422
 30
0.0
 10
803.7551129920191
 20
410.4836441587541
 30
0.0
 10
803.5098657548142
 20
410.2512432144172
 30
0.0
 10
803.3493119763525
 20
409.9583525467265
 30
0.0
 10
803.3296995047368
 20
409.7444114328895
 30
0.0
 10
803.3205878098283
 20
409.6450172210897
 30
0.0
  0
SPLINE
  5
142
330
1F
100
AcDbEntity
  8
0
  6
Continuous
 62
     7
370
    25
100
AcDbSpline
210
0.0
220
0.0
230
1.0
 70
     8
 71
     3
 72
    10
 73
     6
 74
     0
 42
0.000000001
 43
0.00000001
 40
0.0
 40
0.0
 40
0.0
 40
0.0
 40
0.323349398683535
 40
0.7241133744042123
 40
1.0
 40
1.0
 40
1.0
 40
1.0
 10
803.4200400222812
 20
410.0409662197197
 30
0.0
 10
803.4537742035229
 20
409.9584871777726
 30
0.0
 10
803.5293190225677
 20
409.7737824044681
 30
0.0
 10
803.5237801772635
 20
409.4866652571021
 30
0.0
 10
803.4486959972998
 20
409.3161661425461
 30
0.0
 10
803.4180823822294
 20
409.2466495777334
 30
0.0
  0
SPLINE
  5
143
330
1F
100
AcDbEntity
  8
0
  6
Continuous
 62
     7
370
    25
100
AcDbSpline
210
0.0
220
0.0
230
1.0
 70
     8
 71
     3
 72
    11
 73
     7
 74
     0
 42
0.000000001
 43
0.00000001
 40
0.0
 40
0.0
 40
0.0
 40
0.0
 40
0.0415386459044167
 40
0.4479360112561719
 40
0.8390163453449871
 40
1.0
 40
1.0
 40
1.0
 40
1.0
 10
806.9179572273765
 20
410.0562957892979
 30
0.0
 10
806.9181007856397
 20
410.0466730428058
 30
0.0
 10
806.919648860076
 20
409.942905224016
 30
0.0
 10
806.9155635621732
 20
409.7004717580597
 30
0.0
 10
806.9182595067507
 20
409.4277674537088
 30
0.0
 10
806.9178423234499
 20
409.2914887990765
 30
0.0
 10
806.9177206714426
 20
409.251749500152
 30
0.0
  0
SPLINE
  5
144
330
1F
100
AcDbEntity
  8
0
  6
Continuous
 62
     7
370
    25
100
AcDbSpline
210
0.0
220
0.0
230
1.0
 70
    11
 71
     3
 72
    26
 73
    22
 74
     0
 42
0.000000001
 43
0.00000001
 40
0.0
 40
0.0
 40
0.0
 40
0.0
 40
0.052231351202945
 40
0.1044150502958476
 40
0.1578382671092283
 40
0.2123153803049111
 40
0.2653814598461853
 40
0.3167425713056375
 40
0.3687692535061751
 40
0.4227537882281567
 40
0.4770174344260889
 40
0.529496645045731
 40
0.5809345530629638
 40
0.6334997464651715
 40
0.6877722736907002
 40
0.7417313011431693
 40
0.7936561032937013
 40
0.8450714197995514
 40
0.8982096557919209
 40
0.952687661037023
 40
1.0
 40
1.0
 40
1.0
 40
1.0
 10
800.0376682837282
 20
408.6450170571769
 30
0.0
 10
800.0691310739577
 20
408.6556259425515
 30
0.0
 10
800.1320279500409
 20
408.6768340345203
 30
0.0
 10
800.2503037279025
 20
408.8416335586151
 30
0.0
 10
800.3587665179382
 20
409.0876098536254
 30
0.0
 10
800.4316912238552
 20
409.4016799233897
 30
0.0
 10
800.4450486978077
 20
409.7405690255666
 30
0.0
 10
800.3980752105128
 20
410.0623867603314
 30
0.0
 10
800.3053632344655
 20
410.33951906236
 30
0.0
 10
800.1881197087072
 20
410.5461222485486
 30
0.0
 10
800.0746305122354
 20
410.6529023182891
 30
0.0
 10
799.989155604122
 20
410.6458189164683
 30
0.0
 10
799.9390782100174
 20
410.5320137953449
 30
0.0
 10
799.9191184169365
 20
410.3233939775831
 30
0.0
 10
799.9177911736406
 20
410.0357488671719
 30
0.0
 10
799.9204144915624
 20
409.7022809169402
 30
0.0
 10
799.9189235465532
 20
409.3685685474133
 30
0.0
 10
799.9172972541235
 20
409.0680731360374
 30
0.0
 10
799.9285795940052
 20
408.8276051074903
 30
0.0
 10
799.9642463236428
 20
408.6725527187161
 30
0.0
 10
800.014370482582
 20
408.6537545025709
 30
0.0
 10
800.0376682837282
 20
408.6450170571769
 30
0.0
  0
ELLIPSE
  5
145
330
1F
100
AcDbEntity
  8
0
  6
Continuous
 62
     7
370
    25
100
AcDbEllipse
 10
803.4184073468
 20
409.645016859
 30
0.0
 11
1.224744871391636
 21
0.0
 31
0.0
210
0.0
220
0.0
230
1.0
 40
0.8164965809
 41
5.145016574794741
 42
7.423594406161528
  0
SPLINE
  5
146
330
1F
100
AcDbEntity
  8
0
  6
Continuous
 62
     7
370
    25
100
AcDbSpline
210
0.0
220
0.0
230
1.0
 70
     8
 71
     3
 72
    11
 73
     7
 74
     0
 42
0.000000001
 43
0.00000001
 40
0.0
 40
0.0
 40
0.0
 40
0.0
 40
0.0872862002666097
 40
0.6115706916759733
 40
0.967078983323931
 40
1.0
 40
1.0
 40
1.0
 40
1.0
 10
803.531010832337
 20
412.7227151612605
 30
0.0
 10
803.6269120361565
 20
412.7257612034758
 30
0.0
 10
804.298843743269
 20
412.7471032957972
 30
0.0
 10
805.3622827197635
 20
412.7024829781237
 30
0.0
 10
806.3629623050708
 20
412.6171461210854
 30
0.0
 10
806.7871898004781
 20
412.5619296974097
 30
0.0
 10
806.8231448639904
 20
412.5572498733962
 30
0.0
  0
ELLIPSE
  5
147
330
1F
100
AcDbEntity
  8
0
  6
Continuous
 62
     7
370
    25
100
AcDbEllipse
 10
803.4184073468
 20
409.645016859
 30
0.0
 11
0.0
 21
1.0
 31
0.0
210
0.0
220
0.0
230
1.0
 40
0.7071067812
 41
3.696690630038276
 42
5.724473396795462
  0
LINE
  5
148
330
1F
100
AcDbEntity
  8
0
  6
Continuous
 62
     7
370
    25
100
AcDbLine
 10
855.918406706
 20
412.5572498734
 30
0.0
 11
861.0830094774
 21
412.5572498734
 31
0.0
  0
SPLINE
  5
149
330
1F
100
AcDbEntity
  8
0
  6
Continuous
 62
     7
370
    25
100
AcDbSpline
210
0.0
220
0.0
230
1.0
 70
     8
 71
     3
 72
    12
 73
     8
 74
     0
 42
0.000000001
 43
0.00000001
 40
0.0
 40
0.0
 40
0.0
 40
0.0
 40
0.0684722308806026
 40
0.3286909529192574
 40
0.589325718347748
 40
0.8495147396567819
 40
1.0
 40
1.0
 40
1.0
 40
1.0
 10
861.0830094774042
 20
412.5572498733962
 30
0.0
 10
861.0130571078934
 20
412.5681272378346
 30
0.0
 10
860.6772609654612
 20
412.6203424386032
 30
0.0
 10
860.0729779201678
 20
412.6844702343064
 30
0.0
 10
859.2707865445308
 20
412.7267506762139
 30
0.0
 10
858.5805959563432
 20
412.7394974394992
 30
0.0
 10
858.1587715288275
 20
412.7168537098545
 30
0.0
 10
858.0042004694019
 20
412.7085562641586
 30
0.0
  0
LINE
  5
14A
330
1F
100
AcDbEntity
  8
0
  6
Continuous
 62
     7
370
    25
100
AcDbLine
 10
862.497222807
 20
411.5450167875
 30
0.0
 11
862.497222807
 21
412.5572498734
 31
0.0
  0
LINE
  5
14B
330
1F
100
AcDbEntity
  8
0
  6
Continuous
 62
     7
370
    25
100
AcDbLine
 10
862.497222807
 20
412.5572498734
 30
0.0
 11
862.9184078534
 21
412.5572498734
 31
0.0
  0
LINE
  5
14C
330
1F
100
AcDbEntity
  8
0
  6
Continuous
 62
     7
370
    25
100
AcDbLine
 10
861.0830094774
 20
412.5572498734
 30
0.0
 11
861.0830094774
 21
411.5450167875
 31
0.0
  0
LINE
  5
14D
330
1F
100
AcDbEntity
  8
0
  6
Continuous
 62
     7
370
    25
100
AcDbLine
 10
861.0830094774
 20
411.5450167875
 30
0.0
 11
862.497222807
 21
411.5450167875
 31
0.0
  0
ARC
  5
14E
330
1F
100
AcDbEntity
  8
0
  6
Continuous
 62
     7
370
    25
100
AcDbCircle
 10
866.3411068764
 20
409.6448754828
 30
0.0
 40
3.565751740285198
100
AcDbArc
 50
163.9364676519
 51
196.2844416145
  0
SPLINE
  5
14F
330
1F
100
AcDbEntity
  8
0
  6
Continuous
 62
     7
370
    25
100
AcDbSpline
210
0.0
220
0.0
230
1.0
 70
     8
 71
     3
 72
    17
 73
    13
 74
     0
 42
0.000000001
 43
0.00000001
 40
0.0
 40
0.0
 40
0.0
 40
0.0
 40
0.1044614220233267
 40
0.2088293805585396
 40
0.315679015208595
 40
0.4246319062242919
 40
0.5307642810797295
 40
0.6334860009551699
 40
0.7375420720479863
 40
0.8455087782079086
 40
0.9540399181148765
 40
1.0
 40
1.0
 40
1.0
 40
1.0
 10
855.9184067060028
 20
408.6450170571769
 30
0.0
 10
855.9215139046942
 20
408.6556260999145
 30
0.0
 10
855.9277255220113
 20
408.6768346932906
 30
0.0
 10
855.9713629454806
 20
408.8416363254362
 30
0.0
 10
856.0221492133186
 20
409.0876072869481
 30
0.0
 10
856.0610960914014
 20
409.4016628514825
 30
0.0
 10
856.0684821923154
 20
409.7406423102492
 30
0.0
 10
856.0429048574275
 20
410.0621178977789
 30
0.0
 10
855.9956709847169
 20
410.3405720652385
 30
0.0
 10
855.9476235400226
 20
410.5419936064242
 30
0.0
 10
855.9184159904554
 20
410.6450275814375
 30
0.0
 10
855.9213603712734
 20
410.6346247443602
 30
0.0
 10
855.9222363044296
 20
410.6315299714769
 30
0.0
  0
SPLINE
  5
150
330
1F
100
AcDbEntity
  8
0
  6
Continuous
 62
     7
370
    25
100
AcDbSpline
210
0.0
220
0.0
230
1.0
 70
    11
 71
     3
 72
    26
 73
    22
 74
     0
 42
0.000000001
 43
0.00000001
 40
0.0
 40
0.0
 40
0.0
 40
0.0
 40
0.0521820692294798
 40
0.1043113811058815
 40
0.1577978860280544
 40
0.2122587559565725
 40
0.2652868292191031
 40
0.3167942849308842
 40
0.3688805257527523
 40
0.4227919151188565
 40
0.4771110624366166
 40
0.5295753191774838
 40
0.5808568278828351
 40
0.6334196466643871
 40
0.6877458219974524
 40
0.7416317004355664
 40
0.7936313765416724
 40
0.8451827218947169
 40
0.8982774481772023
 40
0.952741151001286
 40
1.0
 40
1.0
 40
1.0
 40
1.0
 10
858.4184080471073
 20
409.6450172210897
 30
0.0
 10
858.4289994224821
 20
409.5351559092333
 30
0.0
 10
858.4501714650912
 20
409.3155443580038
 30
0.0
 10
858.6146725170183
 20
409.0215460099489
 30
0.0
 10
858.8605113719656
 20
408.7918416132575
 30
0.0
 10
859.1746971007
 20
408.655234251629
 30
0.0
 10
859.5137095342731
 20
408.6311111958733
 30
0.0
 10
859.8359982610488
 20
408.7168517735766
 30
0.0
 10
860.1133596007405
 20
408.9005990042052
 30
0.0
 10
860.3197705970308
 20
409.1689467066569
 30
0.0
 10
860.4263718483107
 20
409.4942407667849
 30
0.0
 10
860.4191036369525
 20
409.8321452518247
 30
0.0
 10
860.3054807399128
 20
410.1439521150995
 30
0.0
 10
860.0972316521702
 20
410.4046040965522
 30
0.0
 10
859.8095744261328
 20
410.586466211699
 30
0.0
 10
859.4759980175846
 20
410.6622691544018
 30
0.0
 10
859.1419875757058
 20
410.6246465715288
 30
0.0
 10
858.8410299922357
 20
410.4836430502293
 30
0.0
 10
858.600639108966
 20
410.2512434751089
 30
0.0
 10
858.4458967688605
 20
409.9583532535408
 30
0.0
 10
858.4271278291964
 20
409.7444115089794
 30
0.0
 10
858.4184080471073
 20
409.6450172210897
 30
0.0
  0
SPLINE
  5
151
330
1F
100
AcDbEntity
  8
0
  6
Continuous
 62
     7
370
    25
100
AcDbSpline
210
0.0
220
0.0
230
1.0
 70
     8
 71
     3
 72
    11
 73
     7
 74
     0
 42
0.000000001
 43
0.00000001
 40
0.0
 40
0.0
 40
0.0
 40
0.0
 40
0.1893084340905177
 40
0.6549867766579164
 40
0.9707595138124957
 40
1.0
 40
1.0
 40
1.0
 40
1.0
 10
859.4705026705537
 20
412.7109963293041
 30
0.0
 10
859.6616946916082
 20
412.7192308665624
 30
0.0
 10
860.3231984761329
 20
412.7477214778865
 30
0.0
 10
861.3044330119978
 20
412.7037885991578
 30
0.0
 10
862.1214768503833
 20
412.6171299664784
 30
0.0
 10
862.4678657313337
 20
412.5619283120866
 30
0.0
 10
862.4972228069578
 20
412.5572498733962
 30
0.0
  0
LINE
  5
152
330
1F
100
AcDbEntity
  8
0
  6
Continuous
 62
     7
370
    25
100
AcDbLine
 10
831.4184073468
 20
680.8450156669
 30
0.0
 11
843.4184074511
 21
680.8450156669
 31
0.0
  0
LINE
  5
153
330
1F
100
AcDbEntity
  8
0
  6
Continuous
 62
     7
370
    25
100
AcDbLine
 10
819.4184072424
 20
680.8450156669
 30
0.0
 11
831.4184073468
 21
680.8450156669
 31
0.0
  0
LINE
  5
154
330
1F
100
AcDbEntity
  8
0
  6
Continuous
 62
     7
370
    25
100
AcDbLine
 10
831.4184073468
 20
683.3450132827
 30
0.0
 11
843.4184074511
 21
683.3450132827
 31
0.0
  0
LINE
  5
155
330
1F
100
AcDbEntity
  8
0
  6
Continuous
 62
     7
370
    25
100
AcDbLine
 10
819.4184072424
 20
683.3450132827
 30
0.0
 11
831.4184073468
 21
683.3450132827
 31
0.0
  0
LINE
  5
156
330
1F
100
AcDbEntity
  8
0
  6
Continuous
 62
     7
370
    25
100
AcDbLine
 10
782.0184055825
 20
403.3450167472
 30
0.0
 11
782.0184055825
 21
434.3450153093
 31
0.0
  0
LINE
  5
157
330
1F
100
AcDbEntity
  8
0
  6
Continuous
 62
     7
370
    25
100
AcDbLine
 10
782.0184055825
 20
434.3450153093
 30
0.0
 11
783.4184069295
 21
434.3450153093
 31
0.0
  0
LINE
  5
158
330
1F
100
AcDbEntity
  8
0
  6
Continuous
 62
     7
370
    25
100
AcDbLine
 10
782.0184055825
 20
434.3450153093
 30
0.0
 11
782.0184055825
 21
449.3450159053
 31
0.0
  0
LINE
  5
159
330
1F
100
AcDbEntity
  8
0
  6
Continuous
 62
     7
370
    25
100
AcDbLine
 10
777.418405946
 20
434.3450153093
 30
0.0
 11
777.418405946
 21
447.0450179498
 31
0.0
  0
LINE
  5
15A
330
1F
100
AcDbEntity
  8
0
  6
Continuous
 62
     7
370
    25
100
AcDbLine
 10
777.418405946
 20
421.6450163941
 30
0.0
 11
777.418405946
 21
434.3450153093
 31
0.0
  0
LINE
  5
15B
330
1F
100
AcDbEntity
  8
0
  6
Continuous
 62
     7
370
    25
100
AcDbLine
 10
880.8184091111
 20
434.3450153093
 30
0.0
 11
879.418407764
 21
434.3450153093
 31
0.0
  0
LINE
  5
15C
330
1F
100
AcDbEntity
  8
0
  6
Continuous
 62
     7
370
    25
100
AcDbLine
 10
880.8184091111
 20
434.3450153093
 30
0.0
 11
880.8184091111
 21
403.3450167472
 31
0.0
  0
LINE
  5
15D
330
1F
100
AcDbEntity
  8
0
  6
Continuous
 62
     7
370
    25
100
AcDbLine
 10
880.8184091111
 20
449.3450159053
 30
0.0
 11
880.8184091111
 21
434.3450153093
 31
0.0
  0
LINE
  5
15E
330
1F
100
AcDbEntity
  8
0
  6
Continuous
 62
     7
370
    25
100
AcDbLine
 10
885.4184087475
 20
447.0450179498
 30
0.0
 11
885.4184087475
 21
421.6450163941
 31
0.0
  0
CIRCLE
  5
15F
330
1F
100
AcDbEntity
  8
0
  6
Continuous
 62
     7
370
    25
100
AcDbCircle
 10
831.4184073468
 20
434.345016859
 30
0.0
 40
12.69999999999993
  0
CIRCLE
  5
160
330
1F
100
AcDbEntity
  8
0
  6
Continuous
 62
     7
370
    25
100
AcDbCircle
 10
831.4184073468
 20
434.345016859
 30
0.0
 40
10.74999999999989
  0
LINE
  5
161
330
1F
100
AcDbEntity
  8
0
  6
Continuous
 62
     7
370
    25
100
AcDbLine
 10
820.7184068967
 20
423.8326428304
 30
0.0
 11
820.7184068967
 21
403.3450167472
 31
0.0
  0
LINE
  5
162
330
1F
100
AcDbEntity
  8
0
  6
Continuous
 62
     7
370
    25
100
AcDbLine
 10
842.1184077968
 20
403.3450167472
 30
0.0
 11
842.1184077968
 21
423.8326428304
 31
0.0
  0
ARC
  5
163
330
1F
100
AcDbEntity
  8
0
  6
Continuous
 62
     7
370
    25
100
AcDbCircle
 10
831.4184073468
 20
434.345016859
 30
0.0
 40
14.99999999999998
100
AcDbArc
 50
224.4932242308
 51
315.5067757692
  0
ARC
  5
164
330
1F
100
AcDbEntity
  8
0
  6
Continuous
 62
     7
370
    25
100
AcDbCircle
 10
831.4184073468
 20
434.345016859
 30
0.0
 40
15.0
100
AcDbArc
 50
0.0
 51
180.0
  0
LINE
  5
165
330
1F
100
AcDbEntity
  8
0
  6
Continuous
 62
     7
370
    25
100
AcDbLine
 10
816.418407682
 20
434.3450153093
 30
0.0
 11
816.418407682
 21
403.3450167472
 31
0.0
  0
LINE
  5
166
330
1F
100
AcDbEntity
  8
0
  6
Continuous
 62
     7
370
    25
100
AcDbLine
 10
846.4184070115
 20
403.3450167472
 30
0.0
 11
846.4184070115
 21
434.3450153093
 31
0.0
  0
LINE
  5
167
330
1F
100
AcDbEntity
  8
0
  6
Continuous
 62
     7
370
    25
100
AcDbLine
 10
797.418405499
 20
459.3450175444
 30
0.0
 11
783.4184069295
 21
459.3450175444
 31
0.0
  0
LINE
  5
168
330
1F
100
AcDbEntity
  8
0
  6
Continuous
 62
     7
370
    25
100
AcDbLine
 10
809.418407466
 20
406.7450165595
 30
0.0
 11
797.418405499
 21
406.7450165595
 31
0.0
  0
LINE
  5
169
330
1F
100
AcDbEntity
  8
0
  6
Continuous
 62
     7
370
    25
100
AcDbLine
 10
853.4184072275
 20
459.3450175444
 30
0.0
 11
809.418407466
 21
459.3450175444
 31
0.0
  0
LINE
  5
16A
330
1F
100
AcDbEntity
  8
0
  6
Continuous
 62
     7
370
    25
100
AcDbLine
 10
853.4184072275
 20
406.7450165595
 30
0.0
 11
853.4184072275
 21
459.3450175444
 31
0.0
  0
LINE
  5
16B
330
1F
100
AcDbEntity
  8
0
  6
Continuous
 62
     7
370
    25
100
AcDbLine
 10
865.4184091945
 20
406.7450165595
 30
0.0
 11
853.4184072275
 21
406.7450165595
 31
0.0
  0
LINE
  5
16C
330
1F
100
AcDbEntity
  8
0
  6
Continuous
 62
     7
370
    25
100
AcDbLine
 10
865.4184091945
 20
406.7450165595
 30
0.0
 11
865.4184091945
 21
459.3450175444
 31
0.0
  0
LINE
  5
16D
330
1F
100
AcDbEntity
  8
0
  6
Continuous
 62
     7
370
    25
100
AcDbLine
 10
879.418407764
 20
459.3450175444
 30
0.0
 11
865.4184091945
 21
459.3450175444
 31
0.0
  0
LINE
  5
16E
330
1F
100
AcDbEntity
  8
0
  6
Continuous
 62
     7
370
    25
100
AcDbLine
 10
879.418407764
 20
459.3450175444
 30
0.0
 11
879.418407764
 21
403.3450167472
 31
0.0
  0
LINE
  5
16F
330
1F
100
AcDbEntity
  8
0
  6
Continuous
 62
     7
370
    25
100
AcDbLine
 10
809.418407466
 20
406.7450165595
 30
0.0
 11
809.418407466
 21
459.3450175444
 31
0.0
  0
LINE
  5
170
330
1F
100
AcDbEntity
  8
0
  6
Continuous
 62
     7
370
    25
100
AcDbLine
 10
783.4184069295
 20
459.3450175444
 30
0.0
 11
783.4184069295
 21
403.3450167472
 31
0.0
  0
LINE
  5
171
330
1F
100
AcDbEntity
  8
0
  6
Continuous
 62
     7
370
    25
100
AcDbLine
 10
797.418405499
 20
406.7450165595
 30
0.0
 11
797.418405499
 21
459.3450175444
 31
0.0
  0
LINE
  5
172
330
1F
100
AcDbEntity
  8
0
  6
Continuous
 62
     7
370
    25
100
AcDbLine
 10
809.418407466
 20
459.3450175444
 30
0.0
 11
797.418405499
 21
459.3450175444
 31
0.0
  0
LINE
  5
173
330
1F
100
AcDbEntity
  8
0
  6
Continuous
 62
     7
370
    25
100
AcDbLine
 10
865.4184091945
 20
459.3450175444
 30
0.0
 11
853.4184072275
 21
459.3450175444
 31
0.0
  0
LINE
  5
174
330
1F
100
AcDbEntity
  8
0
  6
Continuous
 62
     7
370
    25
100
AcDbLine
 10
884.4184067209
 20
403.3450167472
 30
0.0
 11
884.4184067209
 21
421.6450163941
 31
0.0
  0
LINE
  5
175
330
1F
100
AcDbEntity
  8
0
  6
Continuous
 62
     7
370
    25
100
AcDbLine
 10
884.4184067209
 20
447.0450179498
 30
0.0
 11
884.4184067209
 21
718.3450097064
 31
0.0
  0
LINE
  5
176
330
1F
100
AcDbEntity
  8
0
  6
Continuous
 62
     7
370
    25
100
AcDbLine
 10
778.4184079726
 20
403.3450167472
 30
0.0
 11
778.4184079726
 21
421.6450163941
 31
0.0
  0
LINE
  5
177
330
1F
100
AcDbEntity
  8
0
  6
Continuous
 62
     7
370
    25
100
AcDbLine
 10
778.4184079726
 20
447.0450179498
 30
0.0
 11
778.4184079726
 21
718.3450097064
 31
0.0
  0
LINE
  5
178
330
1F
100
AcDbEntity
  8
0
  6
Continuous
 62
     7
370
    25
100
AcDbLine
 10
778.4184079726
 20
718.3450097064
 30
0.0
 11
783.4184069295
 21
718.3450097064
 31
0.0
  0
ARC
  5
179
330
1F
100
AcDbEntity
  8
0
  6
Continuous
 62
     7
370
    25
100
AcDbCircle
 10
783.4184073468
 20
715.345016859
 30
0.0
 40
3.000000000000114
100
AcDbArc
 50
0.0
 51
90.0
  0
LINE
  5
17A
330
1F
100
AcDbEntity
  8
0
  6
Continuous
 62
     7
370
    25
100
AcDbLine
 10
786.4184055586
 20
715.3450185279
 30
0.0
 11
786.4184055586
 21
676.345013998
 31
0.0
  0
LINE
  5
17B
330
1F
100
AcDbEntity
  8
0
  6
Continuous
 62
     7
370
    25
100
AcDbLine
 10
876.4184091349
 20
676.345013998
 30
0.0
 11
786.4184055586
 21
676.345013998
 31
0.0
  0
LINE
  5
17C
330
1F
100
AcDbEntity
  8
0
  6
Continuous
 62
     7
370
    25
100
AcDbLine
 10
876.4184091349
 20
676.345013998
 30
0.0
 11
876.4184091349
 21
715.3450185279
 31
0.0
  0
ARC
  5
17D
330
1F
100
AcDbEntity
  8
0
  6
Continuous
 62
     7
370
    25
100
AcDbCircle
 10
879.4184073468
 20
715.345016859
 30
0.0
 40
3.0
100
AcDbArc
 50
90.0
 51
180.0
  0
LINE
  5
17E
330
1F
100
AcDbEntity
  8
0
  6
Continuous
 62
     7
370
    25
100
AcDbLine
 10
879.418407764
 20
718.3450097064
 30
0.0
 11
884.4184067209
 21
718.3450097064
 31
0.0
  0
ELLIPSE
  5
17F
330
1F
100
AcDbEntity
  8
0
  6
Continuous
 62
     7
370
    25
100
AcDbEllipse
 10
772.4184073468
 20
589.9527120136
 30
0.0
 11
5.200117401630792
 21
41.0036657761018
 31
0.0
210
0.0
220
0.0
230
1.0
 40
0.0059388456
 41
4.907579342841401
 42
6.297331468852171
  0
ARC
  5
180
330
1F
100
AcDbEntity
  8
0
  6
Continuous
 62
     7
370
    25
100
AcDbCircle
 10
772.4184073468
 20
633.9527120136
 30
0.0
 40
6.0
100
AcDbArc
 50
330.0
 51
0.0
  0
LINE
  5
181
330
1F
100
AcDbEntity
  8
0
  6
Continuous
 62
     7
370
    25
100
AcDbLine
 10
773.6658763249
 20
597.8752160291
 30
0.0
 11
778.4184079726
 21
597.8752160291
 31
0.0
  0
LINE
  5
182
330
1F
100
AcDbEntity
  8
0
  6
Continuous
 62
     7
370
    25
100
AcDbLine
 10
889.1709383686
 20
597.8752160291
 30
0.0
 11
884.4184067209
 21
597.8752160291
 31
0.0
  0
LINE
  5
183
330
1F
100
AcDbEntity
  8
0
  6
Continuous
 62
     7
370
    25
100
AcDbLine
 10
889.1709383686
 20
597.8752160291
 30
0.0
 11
889.1709383686
 21
403.3450167472
 31
0.0
  0
LINE
  5
184
330
1F
100
AcDbEntity
  8
0
  6
Continuous
 62
     7
370
    25
100
AcDbLine
 10
773.6658763249
 20
403.3450167472
 30
0.0
 11
773.6658763249
 21
597.8752160291
 31
0.0
  0
ELLIPSE
  5
185
330
1F
100
AcDbEntity
  8
0
  6
Continuous
 62
     7
370
    25
100
AcDbEllipse
 10
890.4184073468
 20
589.9527120136
 30
0.0
 11
-5.200117401630679
 21
41.00366577610089
 31
0.0
210
0.0
220
0.0
230
1.0
 40
0.0059388456
 41
6.269039145509759
 42
7.658791271517883
  0
ARC
  5
186
330
1F
100
AcDbEntity
  8
0
  6
Continuous
 62
     7
370
    25
100
AcDbCircle
 10
890.4184073468
 20
633.9527120136
 30
0.0
 40
6.0
100
AcDbArc
 50
180.0
 51
210.0
  0
LINE
  5
187
330
1F
100
AcDbEntity
  8
0
  6
Continuous
 62
     7
370
    25
100
AcDbLine
 10
773.6658763249
 20
597.8752160291
 30
0.0
 11
744.7946716209
 21
547.86881151
 31
0.0
  0
ELLIPSE
  5
188
330
1F
100
AcDbEntity
  8
0
  6
Continuous
 62
     7
370
    25
100
AcDbEllipse
 10
745.4184073468
 20
543.1873402092
 30
0.0
 11
-2.596479277194817
 21
27.50136527989594
 31
0.0
210
0.0
220
0.0
230
1.0
 40
0.0066478966
 41
0.0093564864581252
 42
1.399108612469023
  0
LINE
  5
189
330
1F
100
AcDbEntity
  8
0
  6
Continuous
 62
     7
370
    25
100
AcDbLine
 10
742.8203348179
 20
570.6873470764
 30
0.0
 11
777.6145611067
 21
630.9527093391
 31
0.0
  0
LINE
  5
18A
330
1F
100
AcDbEntity
  8
0
  6
Continuous
 62
     7
370
    25
100
AcDbLine
 10
885.2222535868
 20
630.9527093391
 30
0.0
 11
920.0164798756
 21
570.6873470764
 31
0.0
  0
ELLIPSE
  5
18B
330
1F
100
AcDbEntity
  8
0
  6
Continuous
 62
     7
370
    25
100
AcDbEllipse
 10
917.4184073468
 20
543.1873402092
 30
0.0
 11
2.596479277194703
 21
27.50136527989639
 31
0.0
210
0.0
220
0.0
230
1.0
 40
0.0066478966
 41
4.88407669471049
 42
6.273828820722728
  0
LINE
  5
18C
330
1F
100
AcDbEntity
  8
0
  6
Continuous
 62
     7
370
    25
100
AcDbLine
 10
918.0421430726
 20
547.86881151
 30
0.0
 11
889.1709383686
 21
597.8752160291
 31
0.0
  0
LINE
  5
18D
330
1F
100
AcDbEntity
  8
0
  6
Continuous
 62
     7
370
    25
100
AcDbLine
 10
744.7946716209
 20
547.86881151
 30
0.0
 11
744.7946716209
 21
403.3450167472
 31
0.0
  0
LINE
  5
18E
330
1F
100
AcDbEntity
  8
0
  6
Continuous
 62
     7
370
    25
100
AcDbLine
 10
918.0421430726
 20
403.3450167472
 30
0.0
 11
918.0421430726
 21
547.86881151
 31
0.0
  0
LINE
  5
18F
330
1F
100
AcDbEntity
  8
0
  6
Continuous
 62
     7
370
    25
100
AcDbLine
 10
742.418405797
 20
403.3450167472
 30
0.0
 11
742.418405797
 21
547.86881151
 31
0.0
  0
LINE
  5
190
330
1F
100
AcDbEntity
  8
0
  6
Continuous
 62
     7
370
    25
100
AcDbLine
 10
742.418405797
 20
547.86881151
 30
0.0
 11
744.7946716209
 21
547.86881151
 31
0.0
  0
LINE
  5
191
330
1F
100
AcDbEntity
  8
0
  6
Continuous
 62
     7
370
    25
100
AcDbLine
 10
742.418405797
 20
547.86881151
 30
0.0
 11
742.418405797
 21
569.1873365859
 31
0.0
  0
ARC
  5
192
330
1F
100
AcDbEntity
  8
0
  6
Continuous
 62
     7
370
    25
100
AcDbCircle
 10
745.4184073468
 20
569.1873402092
 30
0.0
 40
3.0
100
AcDbArc
 50
150.0
 51
180.0
  0
LINE
  5
193
330
1F
100
AcDbEntity
  8
0
  6
Continuous
 62
     7
370
    25
100
AcDbLine
 10
920.4184088965
 20
547.86881151
 30
0.0
 11
918.0421430726
 21
547.86881151
 31
0.0
  0
LINE
  5
194
330
1F
100
AcDbEntity
  8
0
  6
Continuous
 62
     7
370
    25
100
AcDbLine
 10
920.4184088965
 20
547.86881151
 30
0.0
 11
920.4184088965
 21
403.3450167472
 31
0.0
  0
LINE
  5
195
330
1F
100
AcDbEntity
  8
0
  6
Continuous
 62
     7
370
    25
100
AcDbLine
 10
920.4184088965
 20
569.1873365859
 30
0.0
 11
920.4184088965
 21
547.86881151
 31
0.0
  0
ARC
  5
196
330
1F
100
AcDbEntity
  8
0
  6
Continuous
 62
     7
370
    25
100
AcDbCircle
 10
917.4184073468
 20
569.1873402092
 30
0.0
 40
3.000000000000049
100
AcDbArc
 50
0.0
 51
30.0
  0
LINE
  5
197
330
1F
100
AcDbEntity
  8
0
  6
Continuous
 62
     7
370
    25
100
AcDbLine
 10
815.4184065868
 20
676.345013998
 30
0.0
 11
815.4184065868
 21
678.3450180511
 31
0.0
  0
LINE
  5
198
330
1F
100
AcDbEntity
  8
0
  6
Continuous
 62
     7
370
    25
100
AcDbLine
 10
847.4184081067
 20
678.3450180511
 30
0.0
 11
815.4184065868
 21
678.3450180511
 31
0.0
  0
LINE
  5
199
330
1F
100
AcDbEntity
  8
0
  6
Continuous
 62
     7
370
    25
100
AcDbLine
 10
847.4184081067
 20
678.3450180511
 30
0.0
 11
847.4184081067
 21
676.345013998
 31
0.0
  0
LINE
  5
19A
330
1F
100
AcDbEntity
  8
0
  6
Continuous
 62
     7
370
    25
100
AcDbLine
 10
811.4184077938
 20
678.3450180511
 30
0.0
 11
811.4184077938
 21
676.345013998
 31
0.0
  0
LINE
  5
19B
330
1F
100
AcDbEntity
  8
0
  6
Continuous
 62
     7
370
    25
100
AcDbLine
 10
815.4184065868
 20
678.3450180511
 30
0.0
 11
811.4184077938
 21
678.3450180511
 31
0.0
  0
LINE
  5
19C
330
1F
100
AcDbEntity
  8
0
  6
Continuous
 62
     7
370
    25
100
AcDbLine
 10
851.4184068997
 20
676.345013998
 30
0.0
 11
851.4184068997
 21
678.3450180511
 31
0.0
  0
LINE
  5
19D
330
1F
100
AcDbEntity
  8
0
  6
Continuous
 62
     7
370
    25
100
AcDbLine
 10
851.4184068997
 20
678.3450180511
 30
0.0
 11
847.4184081067
 21
678.3450180511
 31
0.0
  0
LINE
  5
19E
330
1F
100
AcDbEntity
  8
0
  6
Continuous
 62
     7
370
    25
100
AcDbLine
 10
857.520970713
 20
676.5450173835
 30
0.0
 11
856.1107155044
 21
676.5450173835
 31
0.0
  0
LINE
  5
19F
330
1F
100
AcDbEntity
  8
0
  6
Continuous
 62
     7
370
    25
100
AcDbLine
 10
857.520970713
 20
676.5450173835
 30
0.0
 11
857.520970713
 21
676.345013998
 31
0.0
  0
LINE
  5
1A0
330
1F
100
AcDbEntity
  8
0
  6
Continuous
 62
     7
370
    25
100
AcDbLine
 10
856.1107155044
 20
676.5450173835
 30
0.0
 11
856.1107155044
 21
676.345013998
 31
0.0
  0
LINE
  5
1A1
330
1F
100
AcDbEntity
  8
0
  6
Continuous
 62
     7
370
    25
100
AcDbLine
 10
868.0337902267
 20
676.5450173835
 30
0.0
 11
868.0337902267
 21
676.345013998
 31
0.0
  0
LINE
  5
1A2
330
1F
100
AcDbEntity
  8
0
  6
Continuous
 62
     7
370
    25
100
AcDbLine
 10
869.3158414324
 20
676.5450173835
 30
0.0
 11
869.3158414324
 21
676.345013998
 31
0.0
  0
LINE
  5
1A3
330
1F
100
AcDbEntity
  8
0
  6
Continuous
 62
     7
370
    25
100
AcDbLine
 10
869.3158414324
 20
676.5450173835
 30
0.0
 11
868.0337902267
 21
676.5450173835
 31
0.0
  0
LINE
  5
1A4
330
1F
100
AcDbEntity
  8
0
  6
Continuous
 62
     7
370
    25
100
AcDbLine
 10
859.970891114
 20
676.5450173835
 30
0.0
 11
859.970891114
 21
676.345013998
 31
0.0
  0
LINE
  5
1A5
330
1F
100
AcDbEntity
  8
0
  6
Continuous
 62
     7
370
    25
100
AcDbLine
 10
863.546611007
 20
676.5450173835
 30
0.0
 11
863.546611007
 21
676.345013998
 31
0.0
  0
SPLINE
  5
1A6
330
1F
100
AcDbEntity
  8
0
  6
Continuous
 62
     7
370
    25
100
AcDbSpline
210
0.0
220
0.0
230
1.0
 70
    24
 71
     3
 72
    17
 73
    13
 74
     0
 42
0.000000001
 43
0.00000001
 40
0.0
 40
0.0
 40
0.0
 40
0.0
 40
0.0933509180662164
 40
0.1866874547963978
 40
0.2800290222918445
 40
0.3733588745372383
 40
0.4666634342315656
 40
0.5599113497372114
 40
0.6698461963407318
 40
0.7798786044267805
 40
0.8899293157609326
 40
0.9999999999999999
 40
0.9999999999999999
 40
0.9999999999999999
 40
0.9999999999999999
 10
863.5466110070024
 20
676.5450173835123
 30
0.0
 10
863.5409706925245
 20
676.5450173835123
 30
0.0
 10
863.5296909324973
 20
676.5450173835123
 30
0.0
 10
863.4249026398137
 20
676.5450173835123
 30
0.0
 10
863.247596805399
 20
676.5450173835125
 30
0.0
 10
862.989730029091
 20
676.5450173835123
 30
0.0
 10
862.6718288596995
 20
676.5450173835125
 30
0.0
 10
862.2395150173409
 20
676.5450173835121
 30
0.0
 10
861.7197304835943
 20
676.5450173835125
 30
0.0
 10
861.1455356117893
 20
676.5450173835123
 30
0.0
 10
860.5597741003388
 20
676.5450173835123
 30
0.0
 10
860.1671973163932
 20
676.5450173835123
 30
0.0
 10
859.9708911140237
 20
676.5450173835123
 30
0.0
  0
LINE
  5
1A7
330
1F
100
AcDbEntity
  8
0
  6
Continuous
 62
     7
370
    25
100
AcDbLine
 10
859.970891114
 20
676.5450173835
 30
0.0
 11
857.520970713
 21
676.5450173835
 31
0.0
  0
LINE
  5
1A8
330
1F
100
AcDbEntity
  8
0
  6
Continuous
 62
     7
370
    25
100
AcDbLine
 10
865.7260995467
 20
676.5450173835
 30
0.0
 11
865.7260995467
 21
676.345013998
 31
0.0
  0
SPLINE
  5
1A9
330
1F
100
AcDbEntity
  8
0
  6
Continuous
 62
     7
370
    25
100
AcDbSpline
210
0.0
220
0.0
230
1.0
 70
    24
 71
     3
 72
    11
 73
     7
 74
     0
 42
0.000000001
 43
0.00000001
 40
0.0
 40
0.0
 40
0.0
 40
0.0
 40
0.2798937909025042
 40
0.5599074340177318
 40
0.7799834846418944
 40
1.0
 40
1.0
 40
1.0
 40
1.0
 10
868.0337902267252
 20
676.5450173835123
 30
0.0
 10
867.8428759047919
 20
676.5450173835123
 30
0.0
 10
867.4609655102591
 20
676.5450173835123
 30
0.0
 10
866.8547107167017
 20
676.5450173835123
 30
0.0
 10
866.282719728714
 20
676.5450173835123
 30
0.0
 10
865.9116228735041
 20
676.5450173835123
 30
0.0
 10
865.7260995466982
 20
676.5450173835123
 30
0.0
  0
LINE
  5
1AA
330
1F
100
AcDbEntity
  8
0
  6
Continuous
 62
     7
370
    25
100
AcDbLine
 10
864.5722542067
 20
676.5450173835
 30
0.0
 11
864.5750668009
 21
676.5450173835
 31
0.0
  0
LINE
  5
1AB
330
1F
100
AcDbEntity
  8
0
  6
Continuous
 62
     7
370
    25
100
AcDbLine
 10
864.5722542067
 20
676.5450173835
 30
0.0
 11
864.5722542067
 21
676.345013998
 31
0.0
  0
LINE
  5
1AC
330
1F
100
AcDbEntity
  8
0
  6
Continuous
 62
     7
370
    25
100
AcDbLine
 10
871.1107161005
 20
676.5450173835
 30
0.0
 11
869.3158414324
 21
676.5450173835
 31
0.0
  0
LINE
  5
1AD
330
1F
100
AcDbEntity
  8
0
  6
Continuous
 62
     7
370
    25
100
AcDbLine
 10
865.7044742365
 20
676.5450173835
 30
0.0
 11
864.5722542067
 21
676.5450173835
 31
0.0
  0
LINE
  5
1AE
330
1F
100
AcDbEntity
  8
0
  6
Continuous
 62
     7
370
    25
100
AcDbLine
 10
871.1107161005
 20
676.5450173835
 30
0.0
 11
871.1107161005
 21
676.345013998
 31
0.0
  0
LINE
  5
1AF
330
1F
100
AcDbEntity
  8
0
  6
Continuous
 62
     7
370
    25
100
AcDbLine
 10
746.4184064527
 20
403.3450167472
 30
0.0
 11
746.4184064527
 21
398.345016859
 31
0.0
  0
LINE
  5
1B0
330
1F
100
AcDbEntity
  8
0
  6
Continuous
 62
     7
370
    25
100
AcDbLine
 10
746.4184064527
 20
403.3450167472
 30
0.0
 11
916.4184082408
 21
403.3450167472
 31
0.0
  0
LINE
  5
1B1
330
1F
100
AcDbEntity
  8
0
  6
Continuous
 62
     7
370
    25
100
AcDbLine
 10
916.4184082408
 20
398.345016859
 30
0.0
 11
916.4184082408
 21
403.3450167472
 31
0.0
  0
LINE
  5
1B2
330
1F
100
AcDbEntity
  8
0
  6
Continuous
 62
     7
370
    25
100
AcDbLine
 10
746.4184064527
 20
398.345016859
 30
0.0
 11
916.4184082408
 21
398.345016859
 31
0.0
  0
LINE
  5
1B3
330
1F
100
AcDbEntity
  8
0
  6
Continuous
 62
     7
370
    25
100
AcDbLine
 10
746.4184064527
 20
398.345016859
 30
0.0
 11
742.418405797
 21
398.345016859
 31
0.0
  0
LINE
  5
1B4
330
1F
100
AcDbEntity
  8
0
  6
Continuous
 62
     7
370
    25
100
AcDbLine
 10
742.418405797
 20
398.345016859
 30
0.0
 11
742.418405797
 21
403.3450167472
 31
0.0
  0
LINE
  5
1B5
330
1F
100
AcDbEntity
  8
0
  6
Continuous
 62
     7
370
    25
100
AcDbLine
 10
742.418405797
 20
403.3450167472
 30
0.0
 11
746.4184064527
 21
403.3450167472
 31
0.0
  0
LINE
  5
1B6
330
1F
100
AcDbEntity
  8
0
  6
Continuous
 62
     7
370
    25
100
AcDbLine
 10
920.4184088965
 20
403.3450167472
 30
0.0
 11
920.4184088965
 21
398.345016859
 31
0.0
  0
LINE
  5
1B7
330
1F
100
AcDbEntity
  8
0
  6
Continuous
 62
     7
370
    25
100
AcDbLine
 10
920.4184088965
 20
398.345016859
 30
0.0
 11
916.4184082408
 21
398.345016859
 31
0.0
  0
LINE
  5
1B8
330
1F
100
AcDbEntity
  8
0
  6
Continuous
 62
     7
370
    25
100
AcDbLine
 10
916.4184082408
 20
403.3450167472
 30
0.0
 11
920.4184088965
 21
403.3450167472
 31
0.0
  0
LINE
  5
1B9
330
1F
100
AcDbEntity
  8
0
  6
Continuous
 62
     7
370
    25
100
AcDbLine
 10
634.1201796227
 20
209.3187462418
 30
0.0
 11
633.5201694661
 21
209.3187462418
 31
0.0
  0
LINE
  5
1BA
330
1F
100
AcDbEntity
  8
0
  6
Continuous
 62
     7
370
    25
100
AcDbLine
 10
633.5201694661
 20
196.3187459736
 30
0.0
 11
634.1201796227
 21
196.3187459736
 31
0.0
  0
LINE
  5
1BB
330
1F
100
AcDbEntity
  8
0
  6
Continuous
 62
     7
370
    25
100
AcDbLine
 10
622.2106798583
 20
206.8187462977
 30
0.0
 11
621.5201749497
 21
206.1282460457
 31
0.0
  0
LINE
  5
1BC
330
1F
100
AcDbEntity
  8
0
  6
Continuous
 62
     7
370
    25
100
AcDbLine
 10
621.5201749497
 20
199.5092461696
 30
0.0
 11
622.2106798583
 21
198.8187459177
 31
0.0
  0
LINE
  5
1BD
330
1F
100
AcDbEntity
  8
0
  6
Continuous
 62
     7
370
    25
100
AcDbLine
 10
625.3201796704
 20
206.8187462977
 30
0.0
 11
622.2106798583
 21
206.8187462977
 31
0.0
  0
LINE
  5
1BE
330
1F
100
AcDbEntity
  8
0
  6
Continuous
 62
     7
370
    25
100
AcDbLine
 10
622.2106798583
 20
198.8187459177
 30
0.0
 11
625.3201796704
 21
198.8187459177
 31
0.0
  0
LINE
  5
1BF
330
1F
100
AcDbEntity
  8
0
  6
Continuous
 62
     7
370
    25
100
AcDbLine
 10
631.9201721841
 20
210.8187464877
 30
0.0
 11
630.320174902
 21
210.8187464877
 31
0.0
  0
LINE
  5
1C0
330
1F
100
AcDbEntity
  8
0
  6
Continuous
 62
     7
370
    25
100
AcDbLine
 10
630.320174902
 20
194.8187457277
 30
0.0
 11
631.9201721841
 21
194.8187457277
 31
0.0
  0
LINE
  5
1C1
330
1F
100
AcDbEntity
  8
0
  6
Continuous
 62
     7
370
    25
100
AcDbLine
 10
633.5201694661
 20
210.8187464877
 30
0.0
 11
631.9201721841
 21
210.8187464877
 31
0.0
  0
LINE
  5
1C2
330
1F
100
AcDbEntity
  8
0
  6
Continuous
 62
     7
370
    25
100
AcDbLine
 10
631.9201721841
 20
194.8187457277
 30
0.0
 11
633.5201694661
 21
194.8187457277
 31
0.0
  0
LINE
  5
1C3
330
1F
100
AcDbEntity
  8
0
  6
Continuous
 62
     7
370
    25
100
AcDbLine
 10
213.0201741153
 20
252.218747872
 30
0.0
 11
213.0201741153
 21
256.8187475084
 31
0.0
  0
LINE
  5
1C4
330
1F
100
AcDbEntity
  8
0
  6
Continuous
 62
     7
370
    25
100
AcDbLine
 10
187.6201762849
 20
256.8187475084
 30
0.0
 11
187.6201762849
 21
252.218747872
 31
0.0
  0
LINE
  5
1C5
330
1F
100
AcDbEntity
  8
0
  6
Continuous
 62
     7
370
    25
100
AcDbLine
 10
187.6201762849
 20
153.4187443434
 30
0.0
 11
187.6201762849
 21
148.818744707
 31
0.0
  0
LINE
  5
1C6
330
1F
100
AcDbEntity
  8
0
  6
Continuous
 62
     7
370
    25
100
AcDbLine
 10
213.0201741153
 20
148.818744707
 30
0.0
 11
213.0201741153
 21
153.4187443434
 31
0.0
  0
LINE
  5
1C7
330
1F
100
AcDbEntity
  8
0
  6
Continuous
 62
     7
370
    25
100
AcDbLine
 10
176.9201739722
 20
215.5187459542
 30
0.0
 11
172.3201706105
 21
215.5187459542
 31
0.0
  0
LINE
  5
1C8
330
1F
100
AcDbEntity
  8
0
  6
Continuous
 62
     7
370
    25
100
AcDbLine
 10
172.3201706105
 20
190.1187462612
 30
0.0
 11
176.9201739722
 21
190.1187462612
 31
0.0
  0
LINE
  5
1C9
330
1F
100
AcDbEntity
  8
0
  6
Continuous
 62
     7
370
    25
100
AcDbLine
 10
229.8201753789
 20
238.818744558
 30
0.0
 11
230.3201838427
 21
238.818744558
 31
0.0
  0
LINE
  5
1CA
330
1F
100
AcDbEntity
  8
0
  6
Continuous
 62
     7
370
    25
100
AcDbLine
 10
229.8201753789
 20
238.818744558
 30
0.0
 11
229.8201753789
 21
240.8187448858
 31
0.0
  0
LINE
  5
1CB
330
1F
100
AcDbEntity
  8
0
  6
Continuous
 62
     7
370
    25
100
AcDbLine
 10
229.8201753789
 20
240.8187448858
 30
0.0
 11
230.3201838427
 21
240.8187448858
 31
0.0
  0
LINE
  5
1CC
330
1F
100
AcDbEntity
  8
0
  6
Continuous
 62
     7
370
    25
100
AcDbLine
 10
229.8201753789
 20
166.8187476574
 30
0.0
 11
230.3201838427
 21
166.8187476574
 31
0.0
  0
LINE
  5
1CD
330
1F
100
AcDbEntity
  8
0
  6
Continuous
 62
     7
370
    25
100
AcDbLine
 10
229.8201753789
 20
166.8187476574
 30
0.0
 11
229.8201753789
 21
238.818744558
 31
0.0
  0
LINE
  5
1CE
330
1F
100
AcDbEntity
  8
0
  6
Continuous
 62
     7
370
    25
100
AcDbLine
 10
229.8201753789
 20
164.8187473296
 30
0.0
 11
230.3201838427
 21
164.8187473296
 31
0.0
  0
LINE
  5
1CF
330
1F
100
AcDbEntity
  8
0
  6
Continuous
 62
     7
370
    25
100
AcDbLine
 10
229.8201753789
 20
164.8187473296
 30
0.0
 11
229.8201753789
 21
166.8187476574
 31
0.0
  0
ARC
  5
1D0
330
1F
100
AcDbEntity
  8
0
  6
Continuous
 62
     7
370
    25
100
AcDbCircle
 10
466.3201768094
 20
202.8187461077
 30
0.0
 40
9.0
100
AcDbArc
 50
270.0
 51
330.0
  0
ARC
  5
1D1
330
1F
100
AcDbEntity
  8
0
  6
Continuous
 62
     7
370
    25
100
AcDbCircle
 10
466.3201768094
 20
202.8187461077
 30
0.0
 40
9.0
100
AcDbArc
 50
210.0
 51
270.0
  0
ARC
  5
1D2
330
1F
100
AcDbEntity
  8
0
  6
Continuous
 62
     7
370
    25
100
AcDbCircle
 10
466.3201768094
 20
202.8187461077
 30
0.0
 40
9.0
100
AcDbArc
 50
150.0
 51
210.0
  0
ARC
  5
1D3
330
1F
100
AcDbEntity
  8
0
  6
Continuous
 62
     7
370
    25
100
AcDbCircle
 10
466.3201768094
 20
202.8187461077
 30
0.0
 40
9.0
100
AcDbArc
 50
90.0
 51
150.0
  0
ARC
  5
1D4
330
1F
100
AcDbEntity
  8
0
  6
Continuous
 62
     7
370
    25
100
AcDbCircle
 10
466.3201768094
 20
202.8187461077
 30
0.0
 40
9.0
100
AcDbArc
 50
30.0
 51
90.0
  0
ARC
  5
1D5
330
1F
100
AcDbEntity
  8
0
  6
Continuous
 62
     7
370
    25
100
AcDbCircle
 10
466.3201768094
 20
202.8187461077
 30
0.0
 40
9.0
100
AcDbArc
 50
330.0
 51
30.0
  0
SPLINE
  5
1D6
330
1F
100
AcDbEntity
  8
0
  6
Continuous
 62
     7
370
    25
100
AcDbSpline
210
0.0
220
0.0
230
1.0
 70
    24
 71
     3
 72
    12
 73
     8
 74
     0
 42
0.000000001
 43
0.00000001
 40
0.0
 40
0.0
 40
0.0
 40
0.0
 40
0.0700563820934176
 40
0.3004249949148836
 40
0.5308301237429421
 40
0.765392301860492
 40
1.0
 40
1.0
 40
1.0
 40
1.0
 10
466.3201778226768
 20
211.8187457202532
 30
0.0
 10
466.1969992078205
 20
211.8187457202532
 30
0.0
 10
465.6687684651523
 20
211.8187457202532
 30
0.0
 10
464.736210976513
 20
211.8187457202532
 30
0.0
 10
463.5242015610516
 20
211.8187457202532
 30
0.0
 10
462.3176106491475
 20
211.8187457202532
 30
0.0
 10
461.5219117533359
 20
211.8187457202532
 30
0.0
 10
461.1240237050926
 20
211.8187457202532
 30
0.0
  0
SPLINE
  5
1D7
330
1F
100
AcDbEntity
  8
0
  6
Continuous
 62
     7
370
    25
100
AcDbSpline
210
0.0
220
0.0
230
1.0
 70
     8
 71
     3
 72
    11
 73
     7
 74
     0
 42
0.000000001
 43
0.00000001
 40
0.0
 40
0.0
 40
0.0
 40
0.0
 40
0.2477104153088107
 40
0.4953652239006585
 40
0.7477050480604792
 40
0.9999999999999999
 40
0.9999999999999999
 40
0.9999999999999999
 40
0.9999999999999999
 10
461.1240237050926
 20
211.8187457202532
 30
0.0
 10
460.913929805515
 20
211.4548513493115
 30
0.0
 10
460.4937891688174
 20
210.7271442954396
 30
0.0
 10
459.8482938829139
 20
209.6091213718695
 30
0.0
 10
459.1915620661816
 20
208.4716242057482
 30
0.0
 10
458.7478052999488
 20
207.7030158962959
 30
0.0
 10
458.5259466463004
 20
207.3187459139683
 30
0.0
  0
SPLINE
  5
1D8
330
1F
100
AcDbEntity
  8
0
  6
Continuous
 62
     7
370
    25
100
AcDbSpline
210
0.0
220
0.0
230
1.0
 70
    24
 71
     3
 72
    11
 73
     7
 74
     0
 42
0.000000001
 43
0.00000001
 40
0.0
 40
0.0
 40
0.0
 40
0.0
 40
0.2477115009092897
 40
0.4953654877831745
 40
0.7477050334063212
 40
1.0
 40
1.0
 40
1.0
 40
1.0
 10
471.516331940261
 20
211.8187457202532
 30
0.0
 10
471.0961410936735
 20
211.8187457202532
 30
0.0
 10
470.2558569610524
 20
211.8187457202532
 30
0.0
 10
468.9648731726224
 20
211.8187457202532
 30
0.0
 10
467.6514073007993
 20
211.8187457202532
 30
0.0
 10
466.7638948479923
 20
211.8187457202532
 30
0.0
 10
466.3201778226768
 20
211.8187457202532
 30
0.0
  0
SPLINE
  5
1D9
330
1F
100
AcDbEntity
  8
0
  6
Continuous
 62
     7
370
    25
100
AcDbSpline
210
0.0
220
0.0
230
1.0
 70
     8
 71
     3
 72
    12
 73
     8
 74
     0
 42
0.000000001
 43
0.00000001
 40
0.0
 40
0.0
 40
0.0
 40
0.0
 40
0.1994574302299904
 40
0.3989296295865107
 40
0.601454313496438
 40
0.8040083264152417
 40
1.0
 40
1.0
 40
1.0
 40
1.0
 10
474.1144089990531
 20
207.3187459139683
 30
0.0
 10
473.9390236197686
 20
207.6225223784294
 30
0.0
 10
473.5882398745244
 20
208.2300978009385
 30
0.0
 10
473.0616870131328
 20
209.1420939066337
 30
0.0
 10
472.5368955114794
 20
210.0510853295154
 30
0.0
 10
472.0201611215031
 20
210.946071078147
 30
0.0
 10
471.6824212915136
 20
211.5310649535207
 30
0.0
 10
471.516331940261
 20
211.8187457202532
 30
0.0
  0
SPLINE
  5
1DA
330
1F
100
AcDbEntity
  8
0
  6
Continuous
 62
     7
370
    25
100
AcDbSpline
210
0.0
220
0.0
230
1.0
 70
     8
 71
     3
 72
    12
 73
     8
 74
     0
 42
0.000000001
 43
0.00000001
 40
0.0
 40
0.0
 40
0.0
 40
0.0
 40
0.1959922673419529
 40
0.3956252829403737
 40
0.5952314704887214
 40
0.797623720851589
 40
0.9999999999999999
 40
0.9999999999999999
 40
0.9999999999999999
 40
0.9999999999999999
 10
455.9278733127986
 20
202.8187461076835
 30
0.0
 10
456.0939641710543
 20
202.5310662308583
 30
0.0
 10
456.4292311878726
 20
201.9503625418365
 30
0.0
 10
456.9408905862085
 20
201.0641497134303
 30
0.0
 10
457.4630370365413
 20
200.1597566847763
 30
0.0
 10
457.9920780442807
 20
199.2434407743343
 30
0.0
 10
458.3479951268442
 20
198.6269696842105
 30
0.0
 10
458.5259466463004
 20
198.3187463013985
 30
0.0
  0
SPLINE
  5
1DB
330
1F
100
AcDbEntity
  8
0
  6
Continuous
 62
     7
370
    25
100
AcDbSpline
210
0.0
220
0.0
230
1.0
 70
     8
 71
     3
 72
    12
 73
     8
 74
     0
 42
0.000000001
 43
0.00000001
 40
0.0
 40
0.0
 40
0.0
 40
0.0
 40
0.0700557296979456
 40
0.3004249447947939
 40
0.5308299200245028
 40
0.765392734961758
 40
1.0
 40
1.0
 40
1.0
 40
1.0
 10
458.5259466463004
 20
207.3187459139683
 30
0.0
 10
458.4643586712477
 20
207.212070747906
 30
0.0
 10
458.2002465981166
 20
206.7546080819197
 30
0.0
 10
457.7339649568075
 20
205.9469923019733
 30
0.0
 10
457.1279600398452
 20
204.897360298424
 30
0.0
 10
456.5246631760075
 20
203.8524231781248
 30
0.0
 10
456.1268158314829
 20
203.1633268932787
 30
0.0
 10
455.9278733127986
 20
202.8187461076835
 30
0.0
  0
SPLINE
  5
1DC
330
1F
100
AcDbEntity
  8
0
  6
Continuous
 62
     7
370
    25
100
AcDbSpline
210
0.0
220
0.0
230
1.0
 70
    24
 71
     3
 72
    12
 73
     8
 74
     0
 42
0.000000001
 43
0.00000001
 40
0.0
 40
0.0
 40
0.0
 40
0.0
 40
0.0700563829896588
 40
0.3004242938904862
 40
0.5308294256661503
 40
0.7653922988591224
 40
1.0
 40
1.0
 40
1.0
 40
1.0
 10
466.3201778226768
 20
193.8187464951136
 30
0.0
 10
466.4433564376377
 20
193.8187464951136
 30
0.0
 10
466.9715859414003
 20
193.8187464951136
 30
0.0
 10
467.904142184191
 20
193.8187464951136
 30
0.0
 10
469.1161515095358
 20
193.8187464951136
 30
0.0
 10
470.3227438672267
 20
193.8187464951136
 30
0.0
 10
471.1184439069385
 20
193.8187464951136
 30
0.0
 10
471.516331940261
 20
193.8187464951136
 30
0.0
  0
SPLINE
  5
1DD
330
1F
100
AcDbEntity
  8
0
  6
Continuous
 62
     7
370
    25
100
AcDbSpline
210
0.0
220
0.0
230
1.0
 70
     8
 71
     3
 72
    11
 73
     7
 74
     0
 42
0.000000001
 43
0.00000001
 40
0.0
 40
0.0
 40
0.0
 40
0.0
 40
0.2477104133091075
 40
0.4953645270719552
 40
0.7477050500971923
 40
1.0
 40
1.0
 40
1.0
 40
1.0
 10
471.516331940261
 20
193.8187464951136
 30
0.0
 10
471.7264266398293
 20
194.1826404217856
 30
0.0
 10
472.1465682887073
 20
194.9103455694303
 30
0.0
 10
472.7920514936584
 20
196.0283751817765
 30
0.0
 10
473.4487953941454
 20
197.165865580201
 30
0.0
 10
473.8925511557962
 20
197.9344758651401
 30
0.0
 10
474.1144089990531
 20
198.3187463013985
 30
0.0
  0
SPLINE
  5
1DE
330
1F
100
AcDbEntity
  8
0
  6
Continuous
 62
     7
370
    25
100
AcDbSpline
210
0.0
220
0.0
230
1.0
 70
    24
 71
     3
 72
    11
 73
     7
 74
     0
 42
0.000000001
 43
0.00000001
 40
0.0
 40
0.0
 40
0.0
 40
0.0
 40
0.2477108151499148
 40
0.4953654925266572
 40
0.7477050357778531
 40
0.9999999999999999
 40
0.9999999999999999
 40
0.9999999999999999
 40
0.9999999999999999
 10
461.1240237050926
 20
193.8187464951136
 30
0.0
 10
461.5442132798773
 20
193.8187464951136
 30
0.0
 10
462.384497203459
 20
193.8187464951136
 30
0.0
 10
463.6754813379594
 20
193.8187464951136
 30
0.0
 10
464.9889483256914
 20
193.8187464951136
 30
0.0
 10
465.876460791074
 20
193.8187464951136
 30
0.0
 10
466.3201778226768
 20
193.8187464951136
 30
0.0
  0
SPLINE
  5
1DF
330
1F
100
AcDbEntity
  8
0
  6
Continuous
 62
     7
370
    25
100
AcDbSpline
210
0.0
220
0.0
230
1.0
 70
     8
 71
     3
 72
    12
 73
     8
 74
     0
 42
0.000000001
 43
0.00000001
 40
0.0
 40
0.0
 40
0.0
 40
0.0
 40
0.2200725942293971
 40
0.4139131156470611
 40
0.6077756296029876
 40
0.8038768090597403
 40
0.9999999999999999
 40
0.9999999999999999
 40
0.9999999999999999
 40
0.9999999999999999
 10
458.5259466463004
 20
198.3187463013985
 30
0.0
 10
458.7194727905155
 20
197.9835507372166
 30
0.0
 10
459.0834572729617
 20
197.3531140360572
 30
0.0
 10
459.615155552628
 20
196.4321796776283
 30
0.0
 10
460.121706219843
 20
195.5548148113057
 30
0.0
 10
460.6254339640618
 20
194.6823274359247
 30
0.0
 10
460.957820906939
 20
194.1066175782572
 30
0.0
 10
461.1240237050926
 20
193.8187464951136
 30
0.0
  0
SPLINE
  5
1E0
330
1F
100
AcDbEntity
  8
0
  6
Continuous
 62
     7
370
    25
100
AcDbSpline
210
0.0
220
0.0
230
1.0
 70
     8
 71
     3
 72
    12
 73
     8
 74
     0
 42
0.000000001
 43
0.00000001
 40
0.0
 40
0.0
 40
0.0
 40
0.0
 40
0.0700557538030923
 40
0.3004246957328122
 40
0.5308301001543914
 40
0.7653929958012629
 40
1.0
 40
1.0
 40
1.0
 40
1.0
 10
474.1144089990531
 20
198.3187463013985
 30
0.0
 10
474.1759970327097
 20
198.4254214339545
 30
0.0
 10
474.4401090473212
 20
198.8828834195963
 30
0.0
 10
474.9063854180967
 20
199.6905022088912
 30
0.0
 10
475.512396468125
 20
200.7401307243702
 30
0.0
 10
476.1156925970797
 20
201.7850683201507
 30
0.0
 10
476.5135374695367
 20
202.4741652502466
 30
0.0
 10
476.7124786072646
 20
202.8187461076835
 30
0.0
  0
SPLINE
  5
1E1
330
1F
100
AcDbEntity
  8
0
  6
Continuous
 62
     7
370
    25
100
AcDbSpline
210
0.0
220
0.0
230
1.0
 70
     8
 71
     3
 72
    12
 73
     8
 74
     0
 42
0.000000001
 43
0.00000001
 40
0.0
 40
0.0
 40
0.0
 40
0.0
 40
0.1940120064760955
 40
0.3880041631868844
 40
0.5839770895794909
 40
0.7799274529835152
 40
1.0
 40
1.0
 40
1.0
 40
1.0
 10
476.7124786072646
 20
202.8187461076835
 30
0.0
 10
476.5480717598404
 20
203.1035096400991
 30
0.0
 10
476.2192748857929
 20
203.6730075701907
 30
0.0
 10
475.7174550128162
 20
204.542182240577
 30
0.0
 10
475.2091452474156
 20
205.4225967541913
 30
0.0
 10
474.6737710907991
 20
206.3498999988976
 30
0.0
 10
474.3079337897049
 20
206.9835503301872
 30
0.0
 10
474.1144089990532
 20
207.3187459139683
 30
0.0
  0
SPLINE
  5
1E2
330
1F
100
AcDbEntity
  8
0
  6
Continuous
 62
     7
370
    25
100
AcDbSpline
210
0.0
220
0.0
230
1.0
 70
    24
 71
     3
 72
    12
 73
     8
 74
     0
 42
0.000000001
 43
0.00000001
 40
0.0
 40
0.0
 40
0.0
 40
0.0
 40
0.0700557004717157
 40
0.3004250989358053
 40
0.5308296087284319
 40
0.7653925611658486
 40
1.0
 40
1.0
 40
1.0
 40
1.0
 10
434.3201763027584
 20
211.8187457202532
 30
0.0
 10
434.1969989306725
 20
211.8187457202532
 30
0.0
 10
433.6687681950386
 20
211.8187457202532
 30
0.0
 10
432.7362118642263
 20
211.8187457202532
 30
0.0
 10
431.5242014413637
 20
211.8187457202532
 30
0.0
 10
430.3176108066754
 20
211.8187457202532
 30
0.0
 10
429.5219114499835
 20
211.8187457202532
 30
0.0
 10
429.1240240478193
 20
211.8187457202532
 30
0.0
  0
ARC
  5
1E3
330
1F
100
AcDbEntity
  8
0
  6
Continuous
 62
     7
370
    25
100
AcDbCircle
 10
434.3201768094
 20
202.8187461077
 30
0.0
 40
9.0
100
AcDbArc
 50
90.0
 51
150.0
  0
SPLINE
  5
1E4
330
1F
100
AcDbEntity
  8
0
  6
Continuous
 62
     7
370
    25
100
AcDbSpline
210
0.0
220
0.0
230
1.0
 70
     8
 71
     3
 72
    11
 73
     7
 74
     0
 42
0.000000001
 43
0.00000001
 40
0.0
 40
0.0
 40
0.0
 40
0.0
 40
0.2477104585069111
 40
0.4953651370791204
 40
0.7477051804694581
 40
1.0
 40
1.0
 40
1.0
 40
1.0
 10
429.1240240478193
 20
211.8187457202532
 30
0.0
 10
428.9139299401566
 20
211.4548514650522
 30
0.0
 10
428.4937890342411
 20
210.7271448970836
 30
0.0
 10
427.8482968906214
 20
209.6091202307984
 30
0.0
 10
427.1915617347371
 20
208.4716252961824
 30
0.0
 10
426.7478065566921
 20
207.7030160812237
 30
0.0
 10
426.5259488516723
 20
207.3187459139683
 30
0.0
  0
SPLINE
  5
1E5
330
1F
100
AcDbEntity
  8
0
  6
Continuous
 62
     7
370
    25
100
AcDbSpline
210
0.0
220
0.0
230
1.0
 70
     8
 71
     3
 72
    12
 73
     8
 74
     0
 42
0.000000001
 43
0.00000001
 40
0.0
 40
0.0
 40
0.0
 40
0.0
 40
0.1994571490383412
 40
0.398929068729825
 40
0.6014541740432364
 40
0.8040079147805101
 40
1.0
 40
1.0
 40
1.0
 40
1.0
 10
442.1144037538444
 20
207.3187459139683
 30
0.0
 10
441.9390194387959
 20
207.6225222805237
 30
0.0
 10
441.5882378207418
 20
208.2300975095708
 30
0.0
 10
441.0616907603513
 20
209.1420961657304
 30
0.0
 10
440.5368921040354
 20
210.0510829245697
 30
0.0
 10
440.0201647634486
 20
210.9460731837214
 30
0.0
 10
439.6824216681071
 20
211.5310653100835
 30
0.0
 10
439.5163304203426
 20
211.8187457202532
 30
0.0
  0
ARC
  5
1E6
330
1F
100
AcDbEntity
  8
0
  6
Continuous
 62
     7
370
    25
100
AcDbCircle
 10
434.3201768094
 20
202.8187461077
 30
0.0
 40
9.0
100
AcDbArc
 50
30.0
 51
90.0
  0
SPLINE
  5
1E7
330
1F
100
AcDbEntity
  8
0
  6
Continuous
 62
     7
370
    25
100
AcDbSpline
210
0.0
220
0.0
230
1.0
 70
    24
 71
     3
 72
    11
 73
     7
 74
     0
 42
0.000000001
 43
0.00000001
 40
0.0
 40
0.0
 40
0.0
 40
0.0
 40
0.2477108151499148
 40
0.4953654925266572
 40
0.7477050357778531
 40
0.9999999999999999
 40
0.9999999999999999
 40
0.9999999999999999
 40
0.9999999999999999
 10
439.5163304203426
 20
211.8187457202532
 30
0.0
 10
439.0961408455579
 20
211.8187457202532
 30
0.0
 10
438.2558569219761
 20
211.8187457202532
 30
0.0
 10
436.9648727874758
 20
211.8187457202532
 30
0.0
 10
435.6514057997437
 20
211.8187457202532
 30
0.0
 10
434.7638933343611
 20
211.8187457202532
 30
0.0
 10
434.3201763027583
 20
211.8187457202532
 30
0.0
  0
ARC
  5
1E8
330
1F
100
AcDbEntity
  8
0
  6
Continuous
 62
     7
370
    25
100
AcDbCircle
 10
434.3201768094
 20
202.8187461077
 30
0.0
 40
9.0
100
AcDbArc
 50
270.0
 51
330.0
  0
ARC
  5
1E9
330
1F
100
AcDbEntity
  8
0
  6
Continuous
 62
     7
370
    25
100
AcDbCircle
 10
434.3201768094
 20
202.8187461077
 30
0.0
 40
9.0
100
AcDbArc
 50
210.0
 51
270.0
  0
ARC
  5
1EA
330
1F
100
AcDbEntity
  8
0
  6
Continuous
 62
     7
370
    25
100
AcDbCircle
 10
434.3201768094
 20
202.8187461077
 30
0.0
 40
9.0
100
AcDbArc
 50
150.0
 51
210.0
  0
ARC
  5
1EB
330
1F
100
AcDbEntity
  8
0
  6
Continuous
 62
     7
370
    25
100
AcDbCircle
 10
434.3201768094
 20
202.8187461077
 30
0.0
 40
9.0
100
AcDbArc
 50
330.0
 51
30.0
  0
SPLINE
  5
1EC
330
1F
100
AcDbEntity
  8
0
  6
Continuous
 62
     7
370
    25
100
AcDbSpline
210
0.0
220
0.0
230
1.0
 70
     8
 71
     3
 72
    12
 73
     8
 74
     0
 42
0.000000001
 43
0.00000001
 40
0.0
 40
0.0
 40
0.0
 40
0.0
 40
0.0700560583669398
 40
0.3004251931522826
 40
0.5308300880580192
 40
0.7653924751848801
 40
1.0
 40
1.0
 40
1.0
 40
1.0
 10
442.1144037538444
 20
198.3187463013985
 30
0.0
 10
442.1759930956055
 20
198.4254213955597
 30
0.0
 10
442.4401100089179
 20
198.8828819851927
 30
0.0
 10
442.9063877877902
 20
199.6905006987187
 30
0.0
 10
443.5123952721478
 20
200.7401305787617
 30
0.0
 10
444.1156860101108
 20
201.7850710299331
 30
0.0
 10
444.5135364530556
 20
202.4741656497314
 30
0.0
 10
444.7124808126365
 20
202.8187461076835
 30
0.0
  0
SPLINE
  5
1ED
330
1F
100
AcDbEntity
  8
0
  6
Continuous
 62
     7
370
    25
100
AcDbSpline
210
0.0
220
0.0
230
1.0
 70
     8
 71
     3
 72
    12
 73
     8
 74
     0
 42
0.000000001
 43
0.00000001
 40
0.0
 40
0.0
 40
0.0
 40
0.0
 40
0.1940122117607348
 40
0.3880038877374716
 40
0.583976676892753
 40
0.7799272542321678
 40
1.0
 40
1.0
 40
1.0
 40
1.0
 10
444.7124808126366
 20
202.8187461076835
 30
0.0
 10
444.5480721669855
 20
203.1035093395051
 30
0.0
 10
444.2192722779923
 20
203.6730056615599
 30
0.0
 10
443.717457939448
 20
204.5421833004146
 30
0.0
 10
443.2091476407616
 20
205.422597572739
 30
0.0
 10
442.6737692364807
 20
206.3498998125659
 30
0.0
 10
442.3079297064088
 20
206.9835502852024
 30
0.0
 10
442.1144037538444
 20
207.3187459139683
 30
0.0
  0
SPLINE
  5
1EE
330
1F
100
AcDbEntity
  8
0
  6
Continuous
 62
     7
370
    25
100
AcDbSpline
210
0.0
220
0.0
230
1.0
 70
     8
 71
     3
 72
    12
 73
     8
 74
     0
 42
0.000000001
 43
0.00000001
 40
0.0
 40
0.0
 40
0.0
 40
0.0
 40
0.2200724566246798
 40
0.4139130122421552
 40
0.6077755604017732
 40
0.8038767744571915
 40
1.0
 40
1.0
 40
1.0
 40
1.0
 10
426.5259488516723
 20
198.3187463013985
 30
0.0
 10
426.7194742426684
 20
197.9835506614207
 30
0.0
 10
427.0834574451149
 20
197.3531135810084
 30
0.0
 10
427.6151559776583
 20
196.4321797251754
 30
0.0
 10
428.1217065403378
 20
195.5548147984623
 30
0.0
 10
428.6254343123737
 20
194.6823274391513
 30
0.0
 10
428.9578212515276
 20
194.1066175793328
 30
0.0
 10
429.1240240478193
 20
193.8187464951136
 30
0.0
  0
SPLINE
  5
1EF
330
1F
100
AcDbEntity
  8
0
  6
Continuous
 62
     7
370
    25
100
AcDbSpline
210
0.0
220
0.0
230
1.0
 70
    24
 71
     3
 72
    11
 73
     7
 74
     0
 42
0.000000001
 43
0.00000001
 40
0.0
 40
0.0
 40
0.0
 40
0.0
 40
0.247710558666427
 40
0.4953653212558988
 40
0.7477053017818778
 40
1.0
 40
1.0
 40
1.0
 40
1.0
 10
429.1240240478193
 20
193.8187464951136
 30
0.0
 10
429.5442129943193
 20
193.8187464951136
 30
0.0
 10
430.3844962409912
 20
193.8187464951136
 30
0.0
 10
431.6754804247105
 20
193.8187464951136
 30
0.0
 10
432.9889474444701
 20
193.8187464951136
 30
0.0
 10
433.8764598963361
 20
193.8187464951136
 30
0.0
 10
434.3201763027583
 20
193.8187464951136
 30
0.0
  0
SPLINE
  5
1F0
330
1F
100
AcDbEntity
  8
0
  6
Continuous
 62
     7
370
    25
100
AcDbSpline
210
0.0
220
0.0
230
1.0
 70
     8
 71
     3
 72
    12
 73
     8
 74
     0
 42
0.000000001
 43
0.00000001
 40
0.0
 40
0.0
 40
0.0
 40
0.0
 40
0.1959923700330287
 40
0.3956253164770909
 40
0.5952316091386397
 40
0.7976234380568622
 40
1.0
 40
1.0
 40
1.0
 40
1.0
 10
423.9278717928802
 20
202.8187461076835
 30
0.0
 10
424.0939634649591
 20
202.5310663362246
 30
0.0
 10
424.4292319772962
 20
201.9503631149294
 30
0.0
 10
424.9408901466925
 20
201.0641489321023
 30
0.0
 10
425.4630405215113
 20
200.1597584614159
 30
0.0
 10
425.9920753007144
 20
199.243438652484
 30
0.0
 10
426.3479954761955
 20
198.6269693344706
 30
0.0
 10
426.5259488516723
 20
198.3187463013985
 30
0.0
  0
SPLINE
  5
1F1
330
1F
100
AcDbEntity
  8
0
  6
Continuous
 62
     7
370
    25
100
AcDbSpline
210
0.0
220
0.0
230
1.0
 70
     8
 71
     3
 72
    12
 73
     8
 74
     0
 42
0.000000001
 43
0.00000001
 40
0.0
 40
0.0
 40
0.0
 40
0.0
 40
0.0700560585910312
 40
0.3004250178962895
 40
0.5308299135390322
 40
0.7653924744344528
 40
1.0
 40
1.0
 40
1.0
 40
1.0
 10
426.5259488516723
 20
207.3187459139683
 30
0.0
 10
426.4643594881727
 20
207.2120708323277
 30
0.0
 10
426.2002426365579
 20
206.7546105647147
 30
0.0
 10
425.7339669666223
 20
205.9469909932389
 30
0.0
 10
425.127959388441
 20
204.8973611933815
 30
0.0
 10
424.5246662998994
 20
203.852421681951
 30
0.0
 10
424.1268160050436
 20
203.1633266464394
 30
0.0
 10
423.9278717928802
 20
202.8187461076835
 30
0.0
  0
SPLINE
  5
1F2
330
1F
100
AcDbEntity
  8
0
  6
Continuous
 62
     7
370
    25
100
AcDbSpline
210
0.0
220
0.0
230
1.0
 70
     8
 71
     3
 72
    11
 73
     7
 74
     0
 42
0.000000001
 43
0.00000001
 40
0.0
 40
0.0
 40
0.0
 40
0.0
 40
0.2477105017047477
 40
0.4953650502573768
 40
0.7477053128783963
 40
1.0
 40
1.0
 40
1.0
 40
1.0
 10
439.5163304203426
 20
193.8187464951136
 30
0.0
 10
439.7264247360906
 20
194.182640634574
 30
0.0
 10
440.1465659112247
 20
194.91034671664
 30
0.0
 10
440.7920549125593
 20
196.0283731256396
 30
0.0
 10
441.4487934075959
 20
197.1658658287503
 30
0.0
 10
441.8925469974524
 20
197.9344759492157
 30
0.0
 10
442.1144037538444
 20
198.3187463013985
 30
0.0
  0
SPLINE
  5
1F3
330
1F
100
AcDbEntity
  8
0
  6
Continuous
 62
     7
370
    25
100
AcDbSpline
210
0.0
220
0.0
230
1.0
 70
    24
 71
     3
 72
    12
 73
     8
 74
     0
 42
0.000000001
 43
0.00000001
 40
0.0
 40
0.0
 40
0.0
 40
0.0
 40
0.0700563820934176
 40
0.3004249949148836
 40
0.5308301237429421
 40
0.765392301860492
 40
1.0
 40
1.0
 40
1.0
 40
1.0
 10
434.3201763027583
 20
193.8187464951136
 30
0.0
 10
434.4433549176147
 20
193.8187464951136
 30
0.0
 10
434.9715856602828
 20
193.8187464951136
 30
0.0
 10
435.9041431489222
 20
193.8187464951136
 30
0.0
 10
437.1161525643835
 20
193.8187464951136
 30
0.0
 10
438.3227434762877
 20
193.8187464951136
 30
0.0
 10
439.1184423720993
 20
193.8187464951136
 30
0.0
 10
439.5163304203426
 20
193.8187464951136
 30
0.0
  0
ARC
  5
1F4
330
1F
100
AcDbEntity
  8
0
  6
Continuous
 62
     7
370
    25
100
AcDbCircle
 10
282.3201768094
 20
202.8187461077
 30
0.0
 40
9.000000000000036
100
AcDbArc
 50
270.0
 51
330.0
  0
ARC
  5
1F5
330
1F
100
AcDbEntity
  8
0
  6
Continuous
 62
     7
370
    25
100
AcDbCircle
 10
282.3201768094
 20
202.8187461077
 30
0.0
 40
8.999999999999972
100
AcDbArc
 50
210.0
 51
270.0
  0
ARC
  5
1F6
330
1F
100
AcDbEntity
  8
0
  6
Continuous
 62
     7
370
    25
100
AcDbCircle
 10
282.3201768094
 20
202.8187461077
 30
0.0
 40
8.99999999999995
100
AcDbArc
 50
150.0
 51
210.0
  0
ARC
  5
1F7
330
1F
100
AcDbEntity
  8
0
  6
Continuous
 62
     7
370
    25
100
AcDbCircle
 10
282.3201768094
 20
202.8187461077
 30
0.0
 40
9.0
100
AcDbArc
 50
90.0
 51
150.0
  0
ARC
  5
1F8
330
1F
100
AcDbEntity
  8
0
  6
Continuous
 62
     7
370
    25
100
AcDbCircle
 10
282.3201768094
 20
202.8187461077
 30
0.0
 40
9.000000000000014
100
AcDbArc
 50
30.0
 51
90.0
  0
ARC
  5
1F9
330
1F
100
AcDbEntity
  8
0
  6
Continuous
 62
     7
370
    25
100
AcDbCircle
 10
282.3201768094
 20
202.8187461077
 30
0.0
 40
9.000000000000036
100
AcDbArc
 50
330.0
 51
30.0
  0
SPLINE
  5
1FA
330
1F
100
AcDbEntity
  8
0
  6
Continuous
 62
     7
370
    25
100
AcDbSpline
210
0.0
220
0.0
230
1.0
 70
    24
 71
     3
 72
    12
 73
     8
 74
     0
 42
0.000000001
 43
0.00000001
 40
0.0
 40
0.0
 40
0.0
 40
0.0
 40
0.0700564779984463
 40
0.3004261110561873
 40
0.5308301556547109
 40
0.7653933469562295
 40
1.0
 40
1.0
 40
1.0
 40
1.0
 10
282.3201774650489
 20
211.8187457202532
 30
0.0
 10
282.1969988514642
 20
211.8187457202532
 30
0.0
 10
281.6687668748953
 20
211.8187457202532
 30
0.0
 10
280.7362104943687
 20
211.8187457202532
 30
0.0
 10
279.5242014454845
 20
211.8187457202532
 30
0.0
 10
278.3176136266082
 20
211.8187457202532
 30
0.0
 10
277.521916310816
 20
211.8187457202532
 30
0.0
 10
277.1240307980453
 20
211.8187457202532
 30
0.0
  0
SPLINE
  5
1FB
330
1F
100
AcDbEntity
  8
0
  6
Continuous
 62
     7
370
    25
100
AcDbSpline
210
0.0
220
0.0
230
1.0
 70
     8
 71
     3
 72
    11
 73
     7
 74
     0
 42
0.000000001
 43
0.00000001
 40
0.0
 40
0.0
 40
0.0
 40
0.0
 40
0.2477111010697855
 40
0.4953652191589288
 40
0.7477050456898253
 40
1.0
 40
1.0
 40
1.0
 40
1.0
 10
277.1240307980453
 20
211.8187457202532
 30
0.0
 10
276.9139332706345
 20
211.454851975291
 30
0.0
 10
276.4937865462403
 20
210.7271481947771
 30
0.0
 10
275.8483028522419
 20
209.6091189782263
 30
0.0
 10
275.1915685341272
 20
208.4716245448148
 30
0.0
 10
274.7478121845782
 20
207.7030160093114
 30
0.0
 10
274.5259537392532
 20
207.3187459139683
 30
0.0
  0
SPLINE
  5
1FC
330
1F
100
AcDbEntity
  8
0
  6
Continuous
 62
     7
370
    25
100
AcDbSpline
210
0.0
220
0.0
230
1.0
 70
    24
 71
     3
 72
    11
 73
     7
 74
     0
 42
0.000000001
 43
0.00000001
 40
0.0
 40
0.0
 40
0.0
 40
0.0
 40
0.2477115009092897
 40
0.4953654877831745
 40
0.7477050334063212
 40
1.0
 40
1.0
 40
1.0
 40
1.0
 10
287.5163315826331
 20
211.8187457202532
 30
0.0
 10
287.0961407360456
 20
211.8187457202532
 30
0.0
 10
286.2558566034244
 20
211.8187457202532
 30
0.0
 10
284.9648728149945
 20
211.8187457202532
 30
0.0
 10
283.6514069431714
 20
211.8187457202532
 30
0.0
 10
282.7638944903644
 20
211.8187457202532
 30
0.0
 10
282.3201774650489
 20
211.8187457202532
 30
0.0
  0
SPLINE
  5
1FD
330
1F
100
AcDbEntity
  8
0
  6
Continuous
 62
     7
370
    25
100
AcDbSpline
210
0.0
220
0.0
230
1.0
 70
     8
 71
     3
 72
    12
 73
     8
 74
     0
 42
0.000000001
 43
0.00000001
 40
0.0
 40
0.0
 40
0.0
 40
0.0
 40
0.1994574313450812
 40
0.3989289290507042
 40
0.6014543112683204
 40
0.8040083253195266
 40
1.0
 40
1.0
 40
1.0
 40
1.0
 10
290.1144086414253
 20
207.3187459139683
 30
0.0
 10
289.9390224612359
 20
207.622521925051
 30
0.0
 10
289.5882377320764
 20
208.2300953704487
 30
0.0
 10
289.0616969474651
 20
209.142098310755
 30
0.0
 10
288.5368931497158
 20
210.0510828272171
 30
0.0
 10
288.0201613902414
 20
210.9460714304178
 30
0.0
 10
287.6824211403699
 20
211.5310650696481
 30
0.0
 10
287.5163315826331
 20
211.8187457202532
 30
0.0
  0
SPLINE
  5
1FE
330
1F
100
AcDbEntity
  8
0
  6
Continuous
 62
     7
370
    25
100
AcDbSpline
210
0.0
220
0.0
230
1.0
 70
     8
 71
     3
 72
    12
 73
     8
 74
     0
 42
0.000000001
 43
0.00000001
 40
0.0
 40
0.0
 40
0.0
 40
0.0
 40
0.0700564116890736
 40
0.3004251947804619
 40
0.5308297405148737
 40
0.7653924744317018
 40
0.9999999999999999
 40
0.9999999999999999
 40
0.9999999999999999
 40
0.9999999999999999
 10
274.5259537392532
 20
207.3187459139683
 30
0.0
 10
274.4643630037417
 20
207.2120709075989
 30
0.0
 10
274.2002414441784
 20
206.7546129991211
 30
0.0
 10
273.7339705752527
 20
205.9469909913018
 30
0.0
 10
273.1279667955583
 20
204.8973597974764
 30
0.0
 10
272.5246706989516
 20
203.8524222868
 30
0.0
 10
272.1268206808622
 20
203.1633267633559
 30
0.0
 10
271.9278766804611
 20
202.8187461076835
 30
0.0
  0
SPLINE
  5
1FF
330
1F
100
AcDbEntity
  8
0
  6
Continuous
 62
     7
370
    25
100
AcDbSpline
210
0.0
220
0.0
230
1.0
 70
     8
 71
     3
 72
    12
 73
     8
 74
     0
 42
0.000000001
 43
0.00000001
 40
0.0
 40
0.0
 40
0.0
 40
0.0
 40
0.1959925372918465
 40
0.3956244454193796
 40
0.5952305604354191
 40
0.7976230885899029
 40
1.0
 40
1.0
 40
1.0
 40
1.0
 10
271.9278766804611
 20
202.8187461076835
 30
0.0
 10
272.0939699562176
 20
202.531066869702
 30
0.0
 10
272.4292406814045
 20
201.9503664993833
 30
0.0
 10
272.940884286154
 20
201.0641464813573
 30
0.0
 10
273.4630335497743
 20
200.1597562972031
 30
0.0
 10
273.9920772292284
 20
199.2434397965058
 30
0.0
 10
274.3479994799551
 20
198.6269695382514
 30
0.0
 10
274.5259537392532
 20
198.3187463013985
 30
0.0
  0
SPLINE
  5
200
330
1F
100
AcDbEntity
  8
0
  6
Continuous
 62
     7
370
    25
100
AcDbSpline
210
0.0
220
0.0
230
1.0
 70
     8
 71
     3
 72
    12
 73
     8
 74
     0
 42
0.000000001
 43
0.00000001
 40
0.0
 40
0.0
 40
0.0
 40
0.0
 40
0.0700557538030925
 40
0.3004246957328131
 40
0.5308301001543929
 40
0.7653929958012651
 40
1.0
 40
1.0
 40
1.0
 40
1.0
 10
290.1144086414253
 20
198.3187463013985
 30
0.0
 10
290.1759966750818
 20
198.4254214339545
 30
0.0
 10
290.4401086896934
 20
198.8828834195963
 30
0.0
 10
290.9063850604688
 20
199.6905022088912
 30
0.0
 10
291.5123961104973
 20
200.7401307243702
 30
0.0
 10
292.1156922394518
 20
201.7850683201507
 30
0.0
 10
292.5135371119089
 20
202.4741652502466
 30
0.0
 10
292.7124782496368
 20
202.8187461076835
 30
0.0
  0
SPLINE
  5
201
330
1F
100
AcDbEntity
  8
0
  6
Continuous
 62
     7
370
    25
100
AcDbSpline
210
0.0
220
0.0
230
1.0
 70
     8
 71
     3
 72
    12
 73
     8
 74
     0
 42
0.000000001
 43
0.00000001
 40
0.0
 40
0.0
 40
0.0
 40
0.0
 40
0.1940120064760981
 40
0.3880041631868862
 40
0.5839770895794921
 40
0.7799274529835158
 40
1.0
 40
1.0
 40
1.0
 40
1.0
 10
292.7124782496368
 20
202.8187461076835
 30
0.0
 10
292.5480714022125
 20
203.1035096400991
 30
0.0
 10
292.219274528165
 20
203.6730075701907
 30
0.0
 10
291.7174546551884
 20
204.542182240577
 30
0.0
 10
291.2091448897877
 20
205.4225967541913
 30
0.0
 10
290.6737707331712
 20
206.3498999988976
 30
0.0
 10
290.3079334320769
 20
206.9835503301872
 30
0.0
 10
290.1144086414253
 20
207.3187459139683
 30
0.0
  0
SPLINE
  5
202
330
1F
100
AcDbEntity
  8
0
  6
Continuous
 62
     7
370
    25
100
AcDbSpline
210
0.0
220
0.0
230
1.0
 70
     8
 71
     3
 72
    11
 73
     7
 74
     0
 42
0.000000001
 43
0.00000001
 40
0.0
 40
0.0
 40
0.0
 40
0.0
 40
0.2477104153088107
 40
0.4953652239006585
 40
0.7477050480604792
 40
0.9999999999999999
 40
0.9999999999999999
 40
0.9999999999999999
 40
0.9999999999999999
 10
287.5163315826331
 20
193.8187464951136
 30
0.0
 10
287.7264254822108
 20
194.1826408660553
 30
0.0
 10
288.1465661189083
 20
194.9103479199272
 30
0.0
 10
288.7920614048118
 20
196.0283708434972
 30
0.0
 10
289.4487932215442
 20
197.1658680096187
 30
0.0
 10
289.8925499877769
 20
197.9344763190709
 30
0.0
 10
290.1144086414253
 20
198.3187463013985
 30
0.0
  0
SPLINE
  5
203
330
1F
100
AcDbEntity
  8
0
  6
Continuous
 62
     7
370
    25
100
AcDbSpline
210
0.0
220
0.0
230
1.0
 70
    24
 71
     3
 72
    12
 73
     8
 74
     0
 42
0.000000001
 43
0.00000001
 40
0.0
 40
0.0
 40
0.0
 40
0.0
 40
0.0700563829896588
 40
0.3004242938904862
 40
0.5308294256661503
 40
0.7653922988591224
 40
1.0
 40
1.0
 40
1.0
 40
1.0
 10
282.3201774650489
 20
193.8187464951136
 30
0.0
 10
282.4433560800098
 20
193.8187464951136
 30
0.0
 10
282.9715855837724
 20
193.8187464951136
 30
0.0
 10
283.904141826563
 20
193.8187464951136
 30
0.0
 10
285.116151151908
 20
193.8187464951136
 30
0.0
 10
286.3227435095987
 20
193.8187464951136
 30
0.0
 10
287.1184435493106
 20
193.8187464951136
 30
0.0
 10
287.5163315826331
 20
193.8187464951136
 30
0.0
  0
SPLINE
  5
204
330
1F
100
AcDbEntity
  8
0
  6
Continuous
 62
     7
370
    25
100
AcDbSpline
210
0.0
220
0.0
230
1.0
 70
    24
 71
     3
 72
    11
 73
     7
 74
     0
 42
0.000000001
 43
0.00000001
 40
0.0
 40
0.0
 40
0.0
 40
0.0
 40
0.2477091011133895
 40
0.4953648075039782
 40
0.7477046932967708
 40
1.0
 40
1.0
 40
1.0
 40
1.0
 10
277.1240307980453
 20
193.8187464951136
 30
0.0
 10
277.5442165853061
 20
193.8187464951136
 30
0.0
 10
278.3844975870407
 20
193.8187464951136
 30
0.0
 10
279.6754798831246
 20
193.8187464951136
 30
0.0
 10
280.9889479397383
 20
193.8187464951136
 30
0.0
 10
281.8764604240049
 20
193.8187464951136
 30
0.0
 10
282.3201774650489
 20
193.8187464951136
 30
0.0
  0
SPLINE
  5
205
330
1F
100
AcDbEntity
  8
0
  6
Continuous
 62
     7
370
    25
100
AcDbSpline
210
0.0
220
0.0
230
1.0
 70
     8
 71
     3
 72
    12
 73
     8
 74
     0
 42
0.000000001
 43
0.00000001
 40
0.0
 40
0.0
 40
0.0
 40
0.0
 40
0.2200722468037818
 40
0.4139120706777293
 40
0.607775286275167
 40
0.8038757806947315
 40
1.0
 40
1.0
 40
1.0
 40
1.0
 10
274.5259537392532
 20
198.3187463013985
 30
0.0
 10
274.7194794153278
 20
197.9835511704139
 30
0.0
 10
275.0834626729932
 20
197.3531158803584
 30
0.0
 10
275.6151481463281
 20
196.4321750297661
 30
0.0
 10
276.1217135703621
 20
195.5548197285195
 30
0.0
 10
276.625426474816
 20
194.6823222820956
 30
0.0
 10
276.9578226549763
 20
194.1066166985327
 30
0.0
 10
277.1240307980453
 20
193.8187464951136
 30
0.0
  0
SPLINE
  5
206
330
1F
100
AcDbEntity
  8
0
  6
Continuous
 62
     7
370
    25
100
AcDbSpline
210
0.0
220
0.0
230
1.0
 70
     8
 71
     3
 72
    12
 73
     8
 74
     0
 42
0.000000001
 43
0.00000001
 40
0.0
 40
0.0
 40
0.0
 40
0.0
 40
0.1994574328767776
 40
0.398928932114205
 40
0.6014543158870774
 40
0.8040076414785896
 40
1.0
 40
1.0
 40
1.0
 40
1.0
 10
322.1144064360534
 20
207.3187459139683
 30
0.0
 10
321.9390202020438
 20
207.622521896108
 30
0.0
 10
321.5882353652401
 20
208.2300952836177
 30
0.0
 10
321.0616953921246
 20
209.1420986603233
 30
0.0
 10
320.5368890638699
 20
210.0510804563434
 30
0.0
 10
320.0201689085899
 20
210.946075304521
 30
0.0
 10
319.6824225302307
 20
211.5310656716673
 30
0.0
 10
319.5163293772613
 20
211.8187457202532
 30
0.0
  0
ARC
  5
207
330
1F
100
AcDbEntity
  8
0
  6
Continuous
 62
     7
370
    25
100
AcDbCircle
 10
314.3201768094
 20
202.8187461077
 30
0.0
 40
9.0
100
AcDbArc
 50
30.0
 51
90.0
  0
SPLINE
  5
208
330
1F
100
AcDbEntity
  8
0
  6
Continuous
 62
     7
370
    25
100
AcDbSpline
210
0.0
220
0.0
230
1.0
 70
    24
 71
     3
 72
    11
 73
     7
 74
     0
 42
0.000000001
 43
0.00000001
 40
0.0
 40
0.0
 40
0.0
 40
0.0
 40
0.2477101293906304
 40
0.495365497270243
 40
0.7477050381494365
 40
1.0
 40
1.0
 40
1.0
 40
1.0
 10
319.5163293772613
 20
211.8187457202532
 30
0.0
 10
319.0961410742791
 20
211.8187457202532
 30
0.0
 10
318.2558573597375
 20
211.8187457202532
 30
0.0
 10
316.9648728791666
 20
211.8187457202532
 30
0.0
 10
315.6514047755252
 20
211.8187457202532
 30
0.0
 10
314.7638922975671
 20
211.8187457202532
 30
0.0
 10
314.3201752596771
 20
211.8187457202532
 30
0.0
  0
ARC
  5
209
330
1F
100
AcDbEntity
  8
0
  6
Continuous
 62
     7
370
    25
100
AcDbCircle
 10
314.3201768094
 20
202.8187461077
 30
0.0
 40
9.0
100
AcDbArc
 50
90.0
 51
150.0
  0
SPLINE
  5
20A
330
1F
100
AcDbEntity
  8
0
  6
Continuous
 62
     7
370
    25
100
AcDbSpline
210
0.0
220
0.0
230
1.0
 70
     8
 71
     3
 72
    11
 73
     7
 74
     0
 42
0.000000001
 43
0.00000001
 40
0.0
 40
0.0
 40
0.0
 40
0.0
 40
0.2477105869300751
 40
0.4953648742744298
 40
0.7477048732629094
 40
1.0
 40
1.0
 40
1.0
 40
1.0
 10
309.1240211420928
 20
211.8187457202532
 30
0.0
 10
308.9139266049234
 20
211.4548517013258
 30
0.0
 10
308.493785280806
 20
210.7271463691912
 30
0.0
 10
307.8483002302958
 20
209.6091191970488
 30
0.0
 10
307.1915664336892
 20
208.4716244896941
 30
0.0
 10
306.7478100141822
 20
207.7030159909389
 30
0.0
 10
306.5259515338813
 20
207.3187459139683
 30
0.0
  0
SPLINE
  5
20B
330
1F
100
AcDbEntity
  8
0
  6
Continuous
 62
     7
370
    25
100
AcDbSpline
210
0.0
220
0.0
230
1.0
 70
    24
 71
     3
 72
    12
 73
     8
 74
     0
 42
0.000000001
 43
0.00000001
 40
0.0
 40
0.0
 40
0.0
 40
0.0
 40
0.0700549708033403
 40
0.3004242920468402
 40
0.5308294244297088
 40
0.7653922982408425
 40
1.0
 40
1.0
 40
1.0
 40
1.0
 10
314.3201752596771
 20
211.8187457202532
 30
0.0
 10
314.1969991291497
 20
211.8187457202532
 30
0.0
 10
313.6687696347054
 20
211.8187457202532
 30
0.0
 10
312.73621334827
 20
211.8187457202532
 30
0.0
 10
311.5242015747608
 20
211.8187457202532
 30
0.0
 10
310.3176092146378
 20
211.8187457202532
 30
0.0
 10
309.5219091752522
 20
211.8187457202532
 30
0.0
 10
309.1240211420928
 20
211.8187457202532
 30
0.0
  0
ARC
  5
20C
330
1F
100
AcDbEntity
  8
0
  6
Continuous
 62
     7
370
    25
100
AcDbCircle
 10
314.3201768094
 20
202.8187461077
 30
0.0
 40
9.0
100
AcDbArc
 50
270.0
 51
330.0
  0
ARC
  5
20D
330
1F
100
AcDbEntity
  8
0
  6
Continuous
 62
     7
370
    25
100
AcDbCircle
 10
314.3201768094
 20
202.8187461077
 30
0.0
 40
9.0
100
AcDbArc
 50
210.0
 51
270.0
  0
ARC
  5
20E
330
1F
100
AcDbEntity
  8
0
  6
Continuous
 62
     7
370
    25
100
AcDbCircle
 10
314.3201768094
 20
202.8187461077
 30
0.0
 40
9.0
100
AcDbArc
 50
150.0
 51
210.0
  0
ARC
  5
20F
330
1F
100
AcDbEntity
  8
0
  6
Continuous
 62
     7
370
    25
100
AcDbCircle
 10
314.3201768094
 20
202.8187461077
 30
0.0
 40
9.0
100
AcDbArc
 50
330.0
 51
30.0
  0
SPLINE
  5
210
330
1F
100
AcDbEntity
  8
0
  6
Continuous
 62
     7
370
    25
100
AcDbSpline
210
0.0
220
0.0
230
1.0
 70
     8
 71
     3
 72
    12
 73
     8
 74
     0
 42
0.000000001
 43
0.00000001
 40
0.0
 40
0.0
 40
0.0
 40
0.0
 40
0.1959918559549632
 40
0.3956251450091177
 40
0.5952312610427279
 40
0.797623087558207
 40
1.0
 40
1.0
 40
1.0
 40
1.0
 10
303.9278744750892
 20
202.8187461076834
 30
0.0
 10
304.0939635572865
 20
202.5310659425144
 30
0.0
 10
304.4292275758272
 20
201.9503606550079
 30
0.0
 10
304.9408923132755
 20
201.0641506836948
 30
0.0
 10
305.4630389457695
 20
200.1597578276376
 30
0.0
 10
305.9920740395362
 20
199.2434378064446
 30
0.0
 10
306.3479967405319
 20
198.6269692316314
 30
0.0
 10
306.5259515338813
 20
198.3187463013985
 30
0.0
  0
SPLINE
  5
211
330
1F
100
AcDbEntity
  8
0
  6
Continuous
 62
     7
370
    25
100
AcDbSpline
210
0.0
220
0.0
230
1.0
 70
     8
 71
     3
 72
    12
 73
     8
 74
     0
 42
0.000000001
 43
0.00000001
 40
0.0
 40
0.0
 40
0.0
 40
0.0
 40
0.0700564111460324
 40
0.3004251924517204
 40
0.5308304362238445
 40
0.7653924762502571
 40
1.0
 40
1.0
 40
1.0
 40
1.0
 10
306.5259515338813
 20
207.3187459139683
 30
0.0
 10
306.4643607668063
 20
207.2120709252168
 30
0.0
 10
306.2002390718881
 20
206.7546130922908
 30
0.0
 10
305.7339704259166
 20
205.9469884358229
 30
0.0
 10
305.1279542411124
 20
204.897364167355
 30
0.0
 10
304.5246703639177
 20
203.8524199098401
 30
0.0
 10
304.1268192946119
 20
203.1633263098345
 30
0.0
 10
303.9278744750892
 20
202.8187461076834
 30
0.0
  0
SPLINE
  5
212
330
1F
100
AcDbEntity
  8
0
  6
Continuous
 62
     7
370
    25
100
AcDbSpline
210
0.0
220
0.0
230
1.0
 70
     8
 71
     3
 72
    12
 73
     8
 74
     0
 42
0.000000001
 43
0.00000001
 40
0.0
 40
0.0
 40
0.0
 40
0.0
 40
0.0700557055924699
 40
0.3004251938567484
 40
0.5308297398953792
 40
0.7653924741219164
 40
1.0
 40
1.0
 40
1.0
 40
1.0
 10
322.1144064360534
 20
198.3187463013985
 30
0.0
 10
322.1759943525024
 20
198.425421500967
 30
0.0
 10
322.4401064841548
 20
198.8828848473006
 30
0.0
 10
322.9063933959949
 20
199.6904976178961
 30
0.0
 10
323.5123921798867
 20
200.7401331095119
 30
0.0
 10
324.1156897786198
 20
201.785069754336
 30
0.0
 10
324.5135395952057
 20
202.4741653939303
 30
0.0
 10
324.7124834948455
 20
202.8187461076835
 30
0.0
  0
SPLINE
  5
213
330
1F
100
AcDbEntity
  8
0
  6
Continuous
 62
     7
370
    25
100
AcDbSpline
210
0.0
220
0.0
230
1.0
 70
     8
 71
     3
 72
    12
 73
     8
 74
     0
 42
0.000000001
 43
0.00000001
 40
0.0
 40
0.0
 40
0.0
 40
0.0
 40
0.1940125553195949
 40
0.3880045785880417
 40
0.5839766734354682
 40
0.7799276043659039
 40
1.0
 40
1.0
 40
1.0
 40
1.0
 10
324.7124834948455
 20
202.8187461076835
 30
0.0
 10
324.5480738671652
 20
203.103509486407
 30
0.0
 10
324.2192720110233
 20
203.6730061077826
 30
0.0
 10
323.717450917555
 20
204.5421799917325
 30
0.0
 10
323.2091528316807
 20
205.4226010731524
 30
0.0
 10
322.6737664181554
 20
206.3498973869327
 30
0.0
 10
322.3079302831523
 20
206.9835497966067
 30
0.0
 10
322.1144064360534
 20
207.3187459139683
 30
0.0
  0
SPLINE
  5
214
330
1F
100
AcDbEntity
  8
0
  6
Continuous
 62
     7
370
    25
100
AcDbSpline
210
0.0
220
0.0
230
1.0
 70
    24
 71
     3
 72
    11
 73
     7
 74
     0
 42
0.000000001
 43
0.00000001
 40
0.0
 40
0.0
 40
0.0
 40
0.0
 40
0.2477115009092897
 40
0.4953654877831745
 40
0.7477050334063212
 40
1.0
 40
1.0
 40
1.0
 40
1.0
 10
309.1240211420928
 20
193.8187464951136
 30
0.0
 10
309.5442119886803
 20
193.8187464951136
 30
0.0
 10
310.3844961213015
 20
193.8187464951136
 30
0.0
 10
311.6754799097315
 20
193.8187464951136
 30
0.0
 10
312.9889457815545
 20
193.8187464951136
 30
0.0
 10
313.8764582343615
 20
193.8187464951136
 30
0.0
 10
314.3201752596771
 20
193.8187464951136
 30
0.0
  0
SPLINE
  5
215
330
1F
100
AcDbEntity
  8
0
  6
Continuous
 62
     7
370
    25
100
AcDbSpline
210
0.0
220
0.0
230
1.0
 70
     8
 71
     3
 72
    12
 73
     8
 74
     0
 42
0.000000001
 43
0.00000001
 40
0.0
 40
0.0
 40
0.0
 40
0.0
 40
0.2200723941020677
 40
0.4139130500516571
 40
0.6077756985547724
 40
0.8038770141124244
 40
0.9999999999999999
 40
0.9999999999999999
 40
0.9999999999999999
 40
0.9999999999999999
 10
306.5259515338813
 20
198.3187463013985
 30
0.0
 10
306.7194761662722
 20
197.9835505828024
 30
0.0
 10
307.0834580785873
 20
197.3531131178289
 30
0.0
 10
307.6151569330663
 20
196.4321798007798
 30
0.0
 10
308.1217071350373
 20
195.554814679431
 30
0.0
 10
308.6254356107902
 20
194.6823283519389
 30
0.0
 10
308.9578198436
 20
194.1066177166955
 30
0.0
 10
309.1240211420928
 20
193.8187464951136
 30
0.0
  0
SPLINE
  5
216
330
1F
100
AcDbEntity
  8
0
  6
Continuous
 62
     7
370
    25
100
AcDbSpline
210
0.0
220
0.0
230
1.0
 70
     8
 71
     3
 72
    11
 73
     7
 74
     0
 42
0.000000001
 43
0.00000001
 40
0.0
 40
0.0
 40
0.0
 40
0.0
 40
0.2477104153088107
 40
0.4953652239006585
 40
0.7477050480604792
 40
0.9999999999999999
 40
0.9999999999999999
 40
0.9999999999999999
 40
0.9999999999999999
 10
319.5163293772613
 20
193.8187464951136
 30
0.0
 10
319.7264232768389
 20
194.1826408660553
 30
0.0
 10
320.1465639135364
 20
194.9103479199272
 30
0.0
 10
320.7920591994399
 20
196.0283708434972
 30
0.0
 10
321.4487910161723
 20
197.1658680096187
 30
0.0
 10
321.8925477824051
 20
197.9344763190709
 30
0.0
 10
322.1144064360534
 20
198.3187463013985
 30
0.0
  0
SPLINE
  5
217
330
1F
100
AcDbEntity
  8
0
  6
Continuous
 62
     7
370
    25
100
AcDbSpline
210
0.0
220
0.0
230
1.0
 70
    24
 71
     3
 72
    12
 73
     8
 74
     0
 42
0.000000001
 43
0.00000001
 40
0.0
 40
0.0
 40
0.0
 40
0.0
 40
0.0700563822827617
 40
0.3004257005946324
 40
0.5308294304002703
 40
0.7653923012264084
 40
0.9999999999999999
 40
0.9999999999999999
 40
0.9999999999999999
 40
0.9999999999999999
 10
314.3201752596771
 20
193.8187464951136
 30
0.0
 10
314.4433538733806
 20
193.8187464951136
 30
0.0
 10
314.9715858504587
 20
193.8187464951136
 30
0.0
 10
315.9041422203115
 20
193.8187464951136
 30
0.0
 10
317.1161513158578
 20
193.8187464951136
 30
0.0
 10
318.3227413154912
 20
193.8187464951136
 30
0.0
 10
319.1184413476938
 20
193.8187464951136
 30
0.0
 10
319.5163293772613
 20
193.8187464951136
 30
0.0
  0
ARC
  5
218
330
1F
100
AcDbEntity
  8
0
  6
Continuous
 62
     7
370
    25
100
AcDbCircle
 10
183.3201768094
 20
230.8187461077
 30
0.0
 40
3.50000000000001
100
AcDbArc
 50
256.601549599
 51
43.398450401
  0
SPLINE
  5
219
330
1F
100
AcDbEntity
  8
0
  6
Continuous
 62
     7
370
    25
100
AcDbSpline
210
0.0
220
0.0
230
1.0
 70
     8
 71
     3
 72
    13
 73
     9
 74
     0
 42
0.000000001
 43
0.00000001
 40
0.0
 40
0.0
 40
0.0
 40
0.0
 40
0.0444302597869509
 40
0.2636386421005401
 40
0.4828857718217783
 40
0.7799284704203522
 40
0.9813480127787478
 40
1.0
 40
1.0
 40
1.0
 40
1.0
 10
185.8632548743163
 20
233.2234833268978
 30
0.0
 10
185.8137899396751
 20
233.1378079807615
 30
0.0
 10
185.5202767290178
 20
232.6294307616051
 30
0.0
 10
184.9803721969101
 20
231.6942893095671
 30
0.0
 10
184.1566615324601
 20
230.2675777237478
 30
0.0
 10
183.3525988683683
 20
228.8749297881543
 30
0.0
 10
182.7748568759234
 20
227.8741903460082
 30
0.0
 10
182.529912561486
 20
227.4499635911898
 30
0.0
 10
182.5091525011932
 20
227.4140085904457
 30
0.0
  0
ARC
  5
21A
330
1F
100
AcDbEntity
  8
0
  6
Continuous
 62
     7
370
    25
100
AcDbCircle
 10
183.3201768094
 20
230.8187461077
 30
0.0
 40
3.500000000000016
100
AcDbArc
 50
76.6015495991
 51
223.398450401
  0
SPLINE
  5
21B
330
1F
100
AcDbEntity
  8
0
  6
Continuous
 62
     7
370
    25
100
AcDbSpline
210
0.0
220
0.0
230
1.0
 70
     8
 71
     3
 72
    13
 73
     9
 74
     0
 42
0.000000001
 43
0.00000001
 40
0.0
 40
0.0
 40
0.0
 40
0.0
 40
0.0444287929141256
 40
0.2134008688767418
 40
0.3823914036329812
 40
0.5512164051842872
 40
0.7756367354206459
 40
1.0
 40
1.0
 40
1.0
 40
1.0
 10
180.7771011286651
 20
228.4140087543585
 30
0.0
 10
180.8265656643724
 20
228.4996833813688
 30
0.0
 10
181.0641542686571
 20
228.9111966961693
 30
0.0
 10
181.4914112823323
 20
229.6512296863844
 30
0.0
 10
182.058718259392
 20
230.6338277813099
 30
0.0
 10
182.6884611748372
 20
231.7245826048657
 30
0.0
 10
183.3804422125118
 20
232.923116038244
 30
0.0
 10
183.880970953822
 20
233.7900644192684
 30
0.0
 10
184.1312035017883
 20
234.2234834908106
 30
0.0
  0
ARC
  5
21C
330
1F
100
AcDbEntity
  8
0
  6
Continuous
 62
     7
370
    25
100
AcDbCircle
 10
183.3201768094
 20
230.8187461077
 30
0.0
 40
3.499999999999997
100
AcDbArc
 50
43.398450401
 51
76.601549599
  0
ARC
  5
21D
330
1F
100
AcDbEntity
  8
0
  6
Continuous
 62
     7
370
    25
100
AcDbCircle
 10
183.3201768094
 20
230.8187461077
 30
0.0
 40
3.500000000000016
100
AcDbArc
 50
223.398450401
 51
256.601549599
  0
ARC
  5
21E
330
1F
100
AcDbEntity
  8
0
  6
Continuous
 62
     7
370
    25
100
AcDbCircle
 10
183.3201768094
 20
174.8187461077
 30
0.0
 40
3.500000000000028
100
AcDbArc
 50
241.601549599
 51
28.398450401
  0
SPLINE
  5
21F
330
1F
100
AcDbEntity
  8
0
  6
Continuous
 62
     7
370
    25
100
AcDbSpline
210
0.0
220
0.0
230
1.0
 70
     8
 71
     3
 72
    13
 73
     9
 74
     0
 42
0.000000001
 43
0.00000001
 40
0.0
 40
0.0
 40
0.0
 40
0.0
 40
0.0444302267141974
 40
0.2636381749764076
 40
0.4828855439360218
 40
0.7799269995818091
 40
0.9813484206007075
 40
1.0
 40
1.0
 40
1.0
 40
1.0
 10
186.3989963227187
 20
176.4833483724453
 30
0.0
 10
186.3290421991371
 20
176.4133949939402
 30
0.0
 10
185.9139514188946
 20
175.9983086348009
 30
0.0
 10
185.1504188841814
 20
175.2347601697353
 30
0.0
 10
183.9855036492756
 20
174.069867900749
 30
0.0
 10
182.8484147938434
 20
172.9327548396417
 30
0.0
 10
182.0313144831882
 20
172.1156761361291
 30
0.0
 10
181.6849263009343
 20
171.7692876865434
 30
0.0
 10
181.655569284526
 20
171.7399306474783
 30
0.0
  0
ARC
  5
220
330
1F
100
AcDbEntity
  8
0
  6
Continuous
 62
     7
370
    25
100
AcDbCircle
 10
183.3201768094
 20
174.8187461077
 30
0.0
 40
3.499999999999978
100
AcDbArc
 50
61.6015495991
 51
208.398450401
  0
SPLINE
  5
221
330
1F
100
AcDbEntity
  8
0
  6
Continuous
 62
     7
370
    25
100
AcDbSpline
210
0.0
220
0.0
230
1.0
 70
     8
 71
     3
 72
    13
 73
     9
 74
     0
 42
0.000000001
 43
0.00000001
 40
0.0
 40
0.0
 40
0.0
 40
0.0
 40
0.0444288291441168
 40
0.2134006649890889
 40
0.3823913599855641
 40
0.551217370533861
 40
0.7756376088745285
 40
1.0
 40
1.0
 40
1.0
 40
1.0
 10
180.2413596802627
 20
173.1541439770319
 30
0.0
 10
180.3113132317557
 20
173.2240967648756
 30
0.0
 10
180.647314307961
 20
173.560094173118
 30
0.0
 10
181.2515424354467
 20
174.1643334342027
 30
0.0
 10
182.0538345019505
 20
174.9666224028112
 30
0.0
 10
182.9444393586756
 20
175.8572122473529
 30
0.0
 10
183.9230379161438
 20
176.8358153878763
 30
0.0
 10
184.6308909305401
 20
177.543676677943
 30
0.0
 10
184.9847718172942
 20
177.8975617019989
 30
0.0
  0
ARC
  5
222
330
1F
100
AcDbEntity
  8
0
  6
Continuous
 62
     7
370
    25
100
AcDbCircle
 10
183.3201768094
 20
174.8187461077
 30
0.0
 40
3.500000000000004
100
AcDbArc
 50
28.398450401
 51
61.601549599
  0
ARC
  5
223
330
1F
100
AcDbEntity
  8
0
  6
Continuous
 62
     7
370
    25
100
AcDbCircle
 10
183.3201768094
 20
174.8187461077
 30
0.0
 40
3.500000000000028
100
AcDbArc
 50
208.398450401
 51
241.601549599
  0
CIRCLE
  5
224
330
1F
100
AcDbEntity
  8
0
  6
Continuous
 62
     7
370
    25
100
AcDbCircle
 10
466.3201768094
 20
202.8187461077
 30
0.0
 40
12.00000000000006
  0
CIRCLE
  5
225
330
1F
100
AcDbEntity
  8
0
  6
Continuous
 62
     7
370
    25
100
AcDbCircle
 10
434.3201768094
 20
202.8187461077
 30
0.0
 40
12.0
  0
CIRCLE
  5
226
330
1F
100
AcDbEntity
  8
0
  6
Continuous
 62
     7
370
    25
100
AcDbCircle
 10
282.3201768094
 20
202.8187461077
 30
0.0
 40
12.0
  0
CIRCLE
  5
227
330
1F
100
AcDbEntity
  8
0
  6
Continuous
 62
     7
370
    25
100
AcDbCircle
 10
314.3201768094
 20
202.8187461077
 30
0.0
 40
12.0
  0
LINE
  5
228
330
1F
100
AcDbEntity
  8
0
  6
Continuous
 62
     7
370
    25
100
AcDbLine
 10
634.1201796227
 20
202.8187461077
 30
0.0
 11
638.2396205359
 21
202.8187461077
 31
0.0
  0
SPLINE
  5
229
330
1F
100
AcDbEntity
  8
0
  6
Continuous
 62
     7
370
    25
100
AcDbSpline
210
0.0
220
0.0
230
1.0
 70
     8
 71
     3
 72
    11
 73
     7
 74
     0
 42
0.000000001
 43
0.00000001
 40
0.0
 40
0.0
 40
0.0
 40
0.0
 40
0.247711269237528
 40
0.495365746992607
 40
0.7477052713148362
 40
1.0
 40
1.0
 40
1.0
 40
1.0
 10
638.2396205359374
 20
202.8187461076835
 30
0.0
 10
638.322728542578
 20
202.5559337607239
 30
0.0
 10
638.488925502116
 20
202.030369320433
 30
0.0
 10
638.671706984274
 20
201.2229054196776
 30
0.0
 10
638.795936818768
 20
200.4013806473184
 30
0.0
 10
638.8120926016642
 20
199.8462744842069
 30
0.0
 10
638.8201697760497
 20
199.5687460406282
 30
0.0
  0
SPLINE
  5
22A
330
1F
100
AcDbEntity
  8
0
  6
Continuous
 62
     7
370
    25
100
AcDbSpline
210
0.0
220
0.0
230
1.0
 70
     8
 71
     3
 72
    12
 73
     8
 74
     0
 42
0.000000001
 43
0.00000001
 40
0.0
 40
0.0
 40
0.0
 40
0.0
 40
0.0700426834151987
 40
0.3004147951658182
 40
0.5308228857333727
 40
0.7653883153281031
 40
0.9999999999999999
 40
0.9999999999999999
 40
0.9999999999999999
 40
0.9999999999999999
 10
638.8201697760497
 20
199.5687460406282
 30
0.0
 10
638.8195169624344
 20
199.4917173348286
 30
0.0
 10
638.8167170287511
 20
199.1613393175058
 30
0.0
 10
638.7727443918221
 20
198.5780667438119
 30
0.0
 10
638.6528415719812
 20
197.8199911431676
 30
0.0
 10
638.4761554147249
 20
197.0652978312697
 30
0.0
 10
638.3184706774567
 20
196.5676129480024
 30
0.0
 10
638.2396205359374
 20
196.318745973573
 30
0.0
  0
LINE
  5
22B
330
1F
100
AcDbEntity
  8
0
  6
Continuous
 62
     7
370
    25
100
AcDbLine
 10
634.1201796227
 20
196.3187459736
 30
0.0
 11
638.2396205359
 21
196.3187459736
 31
0.0
  0
LINE
  5
22C
330
1F
100
AcDbEntity
  8
0
  6
Continuous
 62
     7
370
    25
100
AcDbLine
 10
634.1201796227
 20
196.3187459736
 30
0.0
 11
634.1201796227
 21
199.5687460406
 31
0.0
  0
LINE
  5
22D
330
1F
100
AcDbEntity
  8
0
  6
Continuous
 62
     7
370
    25
100
AcDbLine
 10
634.1201796227
 20
199.5687460406
 30
0.0
 11
634.1201796227
 21
202.8187461077
 31
0.0
  0
LINE
  5
22E
330
1F
100
AcDbEntity
  8
0
  6
Continuous
 62
     7
370
    25
100
AcDbLine
 10
634.1201796227
 20
206.0687461747
 30
0.0
 11
634.1201796227
 21
209.3187462418
 31
0.0
  0
LINE
  5
22F
330
1F
100
AcDbEntity
  8
0
  6
Continuous
 62
     7
370
    25
100
AcDbLine
 10
634.1201796227
 20
209.3187462418
 30
0.0
 11
638.2396205359
 21
209.3187462418
 31
0.0
  0
SPLINE
  5
230
330
1F
100
AcDbEntity
  8
0
  6
Continuous
 62
     7
370
    25
100
AcDbSpline
210
0.0
220
0.0
230
1.0
 70
     8
 71
     3
 72
    11
 73
     7
 74
     0
 42
0.000000001
 43
0.00000001
 40
0.0
 40
0.0
 40
0.0
 40
0.0
 40
0.2477114057358338
 40
0.4953656254345591
 40
0.7477052105412075
 40
0.9999999999999999
 40
0.9999999999999999
 40
0.9999999999999999
 40
0.9999999999999999
 10
638.2396205359375
 20
209.3187462417939
 30
0.0
 10
638.3227285139441
 20
209.0559338466662
 30
0.0
 10
638.488925283857
 20
208.5303697286247
 30
0.0
 10
638.6717071367477
 20
207.7229049684765
 30
0.0
 10
638.7959367935762
 20
206.9013808414708
 30
0.0
 10
638.8120925932674
 20
206.3462746383302
 30
0.0
 10
638.8201697760497
 20
206.0687461747386
 30
0.0
  0
SPLINE
  5
231
330
1F
100
AcDbEntity
  8
0
  6
Continuous
 62
     7
370
    25
100
AcDbSpline
210
0.0
220
0.0
230
1.0
 70
     8
 71
     3
 72
    12
 73
     8
 74
     0
 42
0.000000001
 43
0.00000001
 40
0.0
 40
0.0
 40
0.0
 40
0.0
 40
0.0700429639828549
 40
0.3004150204578249
 40
0.5308227872708995
 40
0.7653881735506544
 40
1.0
 40
1.0
 40
1.0
 40
1.0
 10
638.8201697760497
 20
206.0687461747386
 30
0.0
 10
638.8195169653031
 20
205.9917174205114
 30
0.0
 10
638.8167170530401
 20
205.6613402710995
 30
0.0
 10
638.7727444694553
 20
205.0780669276757
 30
0.0
 10
638.6528414685877
 20
204.3199907100491
 30
0.0
 10
638.4761553274797
 20
203.5652974228189
 30
0.0
 10
638.3184706691071
 20
203.0676129666879
 30
0.0
 10
638.2396205359374
 20
202.8187461076835
 30
0.0
  0
LINE
  5
232
330
1F
100
AcDbEntity
  8
0
  6
Continuous
 62
     7
370
    25
100
AcDbLine
 10
634.1201796227
 20
202.8187461077
 30
0.0
 11
634.1201796227
 21
206.0687461747
 31
0.0
  0
LINE
  5
233
330
1F
100
AcDbEntity
  8
0
  6
Continuous
 62
     7
370
    25
100
AcDbLine
 10
638.820169776
 20
199.5687460406
 30
0.0
 11
638.820169776
 21
206.0687461747
 31
0.0
  0
SPLINE
  5
234
330
1F
100
AcDbEntity
  8
0
  6
Continuous
 62
     7
370
    25
100
AcDbSpline
210
0.0
220
0.0
230
1.0
 70
    24
 71
     3
 72
    11
 73
     7
 74
     0
 42
0.000000001
 43
0.00000001
 40
0.0
 40
0.0
 40
0.0
 40
0.0
 40
0.3773847752974016
 40
0.5679117381592625
 40
0.7584171539780105
 40
1.0
 40
1.0
 40
1.0
 40
1.0
 10
638.2396205359374
 20
196.318745973573
 30
0.0
 10
638.3634485741211
 20
196.318745973573
 30
0.0
 10
638.5497925948684
 20
196.318745973573
 30
0.0
 10
638.708205415847
 20
196.318745973573
 30
0.0
 10
638.8003216147089
 20
196.318745973573
 30
0.0
 10
638.8130520961477
 20
196.318745973573
 30
0.0
 10
638.8201697760499
 20
196.318745973573
 30
0.0
  0
LINE
  5
235
330
1F
100
AcDbEntity
  8
0
  6
Continuous
 62
     7
370
    25
100
AcDbLine
 10
638.820169776
 20
196.3187459736
 30
0.0
 11
638.820169776
 21
199.5687460406
 31
0.0
  0
SPLINE
  5
236
330
1F
100
AcDbEntity
  8
0
  6
Continuous
 62
     7
370
    25
100
AcDbSpline
210
0.0
220
0.0
230
1.0
 70
    24
 71
     3
 72
    11
 73
     7
 74
     0
 42
0.000000001
 43
0.00000001
 40
0.0
 40
0.0
 40
0.0
 40
0.0
 40
0.2415835256229357
 40
0.4301764502099165
 40
0.6187888205733987
 40
1.0
 40
1.0
 40
1.0
 40
1.0
 10
638.8201697760497
 20
209.3187462417939
 30
0.0
 10
638.8130578516198
 20
209.3187462417939
 30
0.0
 10
638.8003939814427
 20
209.3187462417939
 30
0.0
 10
638.7091047593879
 20
209.3187462417939
 30
0.0
 10
638.5514624644966
 20
209.3187462417939
 30
0.0
 10
638.3646187360332
 20
209.3187462417939
 30
0.0
 10
638.2396205359374
 20
209.3187462417939
 30
0.0
  0
LINE
  5
237
330
1F
100
AcDbEntity
  8
0
  6
Continuous
 62
     7
370
    25
100
AcDbLine
 10
638.820169776
 20
209.3187462418
 30
0.0
 11
638.820169776
 21
206.0687461747
 31
0.0
  0
LINE
  5
238
330
1F
100
AcDbEntity
  8
0
  6
Continuous
 62
     7
370
    25
100
AcDbLine
 10
621.5201749497
 20
206.1282460457
 30
0.0
 11
621.5201749497
 21
199.5092461696
 31
0.0
  0
LINE
  5
239
330
1F
100
AcDbEntity
  8
0
  6
Continuous
 62
     7
370
    25
100
AcDbLine
 10
622.2106798583
 20
206.8187462977
 30
0.0
 11
622.2106798583
 21
198.8187459177
 31
0.0
  0
LINE
  5
23A
330
1F
100
AcDbEntity
  8
0
  6
Continuous
 62
     7
370
    25
100
AcDbLine
 10
631.9201721841
 20
210.8187464877
 30
0.0
 11
631.9201721841
 21
194.8187457277
 31
0.0
  0
LINE
  5
23B
330
1F
100
AcDbEntity
  8
0
  6
Continuous
 62
     7
370
    25
100
AcDbLine
 10
633.5201694661
 20
210.8187464877
 30
0.0
 11
633.5201694661
 21
194.8187457277
 31
0.0
  0
LINE
  5
23C
330
1F
100
AcDbEntity
  8
0
  6
Continuous
 62
     7
370
    25
100
AcDbLine
 10
185.3201820546
 20
252.218747872
 30
0.0
 11
185.3201820546
 21
250.8187465249
 31
0.0
  0
LINE
  5
23D
330
1F
100
AcDbEntity
  8
0
  6
Continuous
 62
     7
370
    25
100
AcDbLine
 10
215.3201832467
 20
252.218747872
 30
0.0
 11
215.3201832467
 21
250.8187465249
 31
0.0
  0
LINE
  5
23E
330
1F
100
AcDbEntity
  8
0
  6
Continuous
 62
     7
370
    25
100
AcDbLine
 10
185.3201820546
 20
252.218747872
 30
0.0
 11
215.3201832467
 21
252.218747872
 31
0.0
  0
LINE
  5
23F
330
1F
100
AcDbEntity
  8
0
  6
Continuous
 62
     7
370
    25
100
AcDbLine
 10
187.6201762849
 20
256.8187475084
 30
0.0
 11
213.0201741153
 21
256.8187475084
 31
0.0
  0
LINE
  5
240
330
1F
100
AcDbEntity
  8
0
  6
Continuous
 62
     7
370
    25
100
AcDbLine
 10
215.3201832467
 20
153.4187443434
 30
0.0
 11
215.3201832467
 21
154.8187456905
 31
0.0
  0
LINE
  5
241
330
1F
100
AcDbEntity
  8
0
  6
Continuous
 62
     7
370
    25
100
AcDbLine
 10
215.3201832467
 20
153.4187443434
 30
0.0
 11
185.3201820546
 21
153.4187443434
 31
0.0
  0
LINE
  5
242
330
1F
100
AcDbEntity
  8
0
  6
Continuous
 62
     7
370
    25
100
AcDbLine
 10
185.3201820546
 20
153.4187443434
 30
0.0
 11
185.3201820546
 21
154.8187456905
 31
0.0
  0
LINE
  5
243
330
1F
100
AcDbEntity
  8
0
  6
Continuous
 62
     7
370
    25
100
AcDbLine
 10
213.0201741153
 20
148.818744707
 30
0.0
 11
187.6201762849
 21
148.818744707
 31
0.0
  0
LINE
  5
244
330
1F
100
AcDbEntity
  8
0
  6
Continuous
 62
     7
370
    25
100
AcDbLine
 10
176.9201739722
 20
187.818746443
 30
0.0
 11
178.3201827699
 21
187.818746443
 31
0.0
  0
LINE
  5
245
330
1F
100
AcDbEntity
  8
0
  6
Continuous
 62
     7
370
    25
100
AcDbLine
 10
176.9201739722
 20
217.8187457724
 30
0.0
 11
178.3201827699
 21
217.8187457724
 31
0.0
  0
LINE
  5
246
330
1F
100
AcDbEntity
  8
0
  6
Continuous
 62
     7
370
    25
100
AcDbLine
 10
176.9201739722
 20
187.818746443
 30
0.0
 11
176.9201739722
 21
217.8187457724
 31
0.0
  0
LINE
  5
247
330
1F
100
AcDbEntity
  8
0
  6
Continuous
 62
     7
370
    25
100
AcDbLine
 10
172.3201706105
 20
190.1187462612
 30
0.0
 11
172.3201706105
 21
215.5187459542
 31
0.0
  0
LINE
  5
248
330
1F
100
AcDbEntity
  8
0
  6
Continuous
 62
     7
370
    25
100
AcDbLine
 10
188.3201732331
 20
180.8187462269
 30
0.0
 11
178.3201827699
 21
180.8187462269
 31
0.0
  0
LINE
  5
249
330
1F
100
AcDbEntity
  8
0
  6
Continuous
 62
     7
370
    25
100
AcDbLine
 10
178.3201827699
 20
180.8187462269
 30
0.0
 11
178.3201827699
 21
224.8187459885
 31
0.0
  0
LINE
  5
24A
330
1F
100
AcDbEntity
  8
0
  6
Continuous
 62
     7
370
    25
100
AcDbLine
 10
178.3201827699
 20
224.8187459885
 30
0.0
 11
188.3201732331
 21
224.8187459885
 31
0.0
  0
LINE
  5
24B
330
1F
100
AcDbEntity
  8
0
  6
Continuous
 62
     7
370
    25
100
AcDbLine
 10
188.3201732331
 20
224.8187459885
 30
0.0
 11
188.3201732331
 21
236.8187479554
 31
0.0
  0
LINE
  5
24C
330
1F
100
AcDbEntity
  8
0
  6
Continuous
 62
     7
370
    25
100
AcDbLine
 10
188.3201732331
 20
236.8187479554
 30
0.0
 11
178.3201827699
 21
236.8187479554
 31
0.0
  0
LINE
  5
24D
330
1F
100
AcDbEntity
  8
0
  6
Continuous
 62
     7
370
    25
100
AcDbLine
 10
178.3201827699
 20
236.8187479554
 30
0.0
 11
178.3201827699
 21
250.8187465249
 31
0.0
  0
LINE
  5
24E
330
1F
100
AcDbEntity
  8
0
  6
Continuous
 62
     7
370
    25
100
AcDbLine
 10
230.3201838427
 20
250.8187465249
 30
0.0
 11
178.3201827699
 21
250.8187465249
 31
0.0
  0
LINE
  5
24F
330
1F
100
AcDbEntity
  8
0
  6
Continuous
 62
     7
370
    25
100
AcDbLine
 10
230.3201838427
 20
154.8187456905
 30
0.0
 11
178.3201827699
 21
154.8187456905
 31
0.0
  0
LINE
  5
250
330
1F
100
AcDbEntity
  8
0
  6
Continuous
 62
     7
370
    25
100
AcDbLine
 10
178.3201827699
 20
154.8187456905
 30
0.0
 11
178.3201827699
 21
168.8187442599
 31
0.0
  0
LINE
  5
251
330
1F
100
AcDbEntity
  8
0
  6
Continuous
 62
     7
370
    25
100
AcDbLine
 10
178.3201827699
 20
168.8187442599
 30
0.0
 11
188.3201732331
 21
168.8187442599
 31
0.0
  0
LINE
  5
252
330
1F
100
AcDbEntity
  8
0
  6
Continuous
 62
     7
370
    25
100
AcDbLine
 10
188.3201732331
 20
168.8187442599
 30
0.0
 11
188.3201732331
 21
180.8187462269
 31
0.0
  0
LINE
  5
253
330
1F
100
AcDbEntity
  8
0
  6
Continuous
 62
     7
370
    25
100
AcDbLine
 10
178.3201827699
 20
224.8187459885
 30
0.0
 11
178.3201827699
 21
236.8187479554
 31
0.0
  0
LINE
  5
254
330
1F
100
AcDbEntity
  8
0
  6
Continuous
 62
     7
370
    25
100
AcDbLine
 10
178.3201827699
 20
168.8187442599
 30
0.0
 11
178.3201827699
 21
180.8187462269
 31
0.0
  0
LINE
  5
255
330
1F
100
AcDbEntity
  8
0
  6
Continuous
 62
     7
370
    25
100
AcDbLine
 10
230.3201838427
 20
255.8187454818
 30
0.0
 11
618.3201803857
 21
255.8187454818
 31
0.0
  0
LINE
  5
256
330
1F
100
AcDbEntity
  8
0
  6
Continuous
 62
     7
370
    25
100
AcDbLine
 10
618.3201803857
 20
255.8187454818
 30
0.0
 11
618.3201803857
 21
250.8187465249
 31
0.0
  0
LINE
  5
257
330
1F
100
AcDbEntity
  8
0
  6
Continuous
 62
     7
370
    25
100
AcDbLine
 10
230.3201838427
 20
250.8187465249
 30
0.0
 11
618.3201803857
 21
250.8187465249
 31
0.0
  0
LINE
  5
258
330
1F
100
AcDbEntity
  8
0
  6
Continuous
 62
     7
370
    25
100
AcDbLine
 10
230.3201838427
 20
255.8187454818
 30
0.0
 11
230.3201838427
 21
250.8187465249
 31
0.0
  0
LINE
  5
259
330
1F
100
AcDbEntity
  8
0
  6
Continuous
 62
     7
370
    25
100
AcDbLine
 10
618.3201803857
 20
247.8187478958
 30
0.0
 11
230.3201838427
 21
247.8187478958
 31
0.0
  0
LINE
  5
25A
330
1F
100
AcDbEntity
  8
0
  6
Continuous
 62
     7
370
    25
100
AcDbLine
 10
618.3201803857
 20
250.8187465249
 30
0.0
 11
618.3201803857
 21
247.8187478958
 31
0.0
  0
LINE
  5
25B
330
1F
100
AcDbEntity
  8
0
  6
Continuous
 62
     7
370
    25
100
AcDbLine
 10
230.3201838427
 20
247.8187478958
 30
0.0
 11
230.3201838427
 21
250.8187465249
 31
0.0
  0
LINE
  5
25C
330
1F
100
AcDbEntity
  8
0
  6
Continuous
 62
     7
370
    25
100
AcDbLine
 10
230.3201838427
 20
157.8187443195
 30
0.0
 11
618.3201803857
 21
157.8187443195
 31
0.0
  0
LINE
  5
25D
330
1F
100
AcDbEntity
  8
0
  6
Continuous
 62
     7
370
    25
100
AcDbLine
 10
618.3201803857
 20
154.8187456905
 30
0.0
 11
230.3201838427
 21
154.8187456905
 31
0.0
  0
LINE
  5
25E
330
1F
100
AcDbEntity
  8
0
  6
Continuous
 62
     7
370
    25
100
AcDbLine
 10
618.3201803857
 20
157.8187443195
 30
0.0
 11
618.3201803857
 21
154.8187456905
 31
0.0
  0
LINE
  5
25F
330
1F
100
AcDbEntity
  8
0
  6
Continuous
 62
     7
370
    25
100
AcDbLine
 10
230.3201838427
 20
154.8187456905
 30
0.0
 11
230.3201838427
 21
157.8187443195
 31
0.0
  0
LINE
  5
260
330
1F
100
AcDbEntity
  8
0
  6
Continuous
 62
     7
370
    25
100
AcDbLine
 10
230.3201838427
 20
149.8187467335
 30
0.0
 11
618.3201803857
 21
149.8187467335
 31
0.0
  0
LINE
  5
261
330
1F
100
AcDbEntity
  8
0
  6
Continuous
 62
     7
370
    25
100
AcDbLine
 10
618.3201803857
 20
154.8187456905
 30
0.0
 11
618.3201803857
 21
149.8187467335
 31
0.0
  0
LINE
  5
262
330
1F
100
AcDbEntity
  8
0
  6
Continuous
 62
     7
370
    25
100
AcDbLine
 10
230.3201838427
 20
154.8187456905
 30
0.0
 11
230.3201838427
 21
149.8187467335
 31
0.0
  0
ARC
  5
263
330
1F
100
AcDbEntity
  8
0
  6
Continuous
 62
     7
370
    25
100
AcDbCircle
 10
271.3201768094
 20
218.8187461077
 30
0.0
 40
4.000000000000057
100
AcDbArc
 50
90.0
 51
180.0
  0
LINE
  5
264
330
1F
100
AcDbEntity
  8
0
  6
Continuous
 62
     7
370
    25
100
AcDbLine
 10
271.3201775247
 20
222.8187456606
 30
0.0
 11
325.3201752001
 21
222.8187456606
 31
0.0
  0
ARC
  5
265
330
1F
100
AcDbEntity
  8
0
  6
Continuous
 62
     7
370
    25
100
AcDbCircle
 10
325.3201768094
 20
218.8187461077
 30
0.0
 40
4.0
100
AcDbArc
 50
0.0
 51
90.0
  0
LINE
  5
266
330
1F
100
AcDbEntity
  8
0
  6
Continuous
 62
     7
370
    25
100
AcDbLine
 10
329.3201758557
 20
218.8187468676
 30
0.0
 11
329.3201758557
 21
186.8187453477
 31
0.0
  0
ARC
  5
267
330
1F
100
AcDbEntity
  8
0
  6
Continuous
 62
     7
370
    25
100
AcDbCircle
 10
325.3201768094
 20
186.8187461077
 30
0.0
 40
4.000000000000028
100
AcDbArc
 50
270.0
 51
0.0
  0
LINE
  5
268
330
1F
100
AcDbEntity
  8
0
  6
Continuous
 62
     7
370
    25
100
AcDbLine
 10
325.3201752001
 20
182.8187465547
 30
0.0
 11
271.3201775247
 21
182.8187465547
 31
0.0
  0
ARC
  5
269
330
1F
100
AcDbEntity
  8
0
  6
Continuous
 62
     7
370
    25
100
AcDbCircle
 10
271.3201768094
 20
186.8187461077
 30
0.0
 40
4.000000000000057
100
AcDbArc
 50
180.0
 51
270.0
  0
LINE
  5
26A
330
1F
100
AcDbEntity
  8
0
  6
Continuous
 62
     7
370
    25
100
AcDbLine
 10
267.3201694184
 20
186.8187453477
 30
0.0
 11
267.3201694184
 21
218.8187468676
 31
0.0
  0
ARC
  5
26B
330
1F
100
AcDbEntity
  8
0
  6
Continuous
 62
     7
370
    25
100
AcDbCircle
 10
477.3201768094
 20
218.8187461077
 30
0.0
 40
4.0
100
AcDbArc
 50
0.0
 51
90.0
  0
ARC
  5
26C
330
1F
100
AcDbEntity
  8
0
  6
Continuous
 62
     7
370
    25
100
AcDbCircle
 10
477.3201768094
 20
186.8187461077
 30
0.0
 40
4.000000000000028
100
AcDbArc
 50
270.0
 51
0.0
  0
LINE
  5
26D
330
1F
100
AcDbEntity
  8
0
  6
Continuous
 62
     7
370
    25
100
AcDbLine
 10
423.3201763624
 20
182.8187465547
 30
0.0
 11
477.3201777631
 21
182.8187465547
 31
0.0
  0
ARC
  5
26E
330
1F
100
AcDbEntity
  8
0
  6
Continuous
 62
     7
370
    25
100
AcDbCircle
 10
423.3201768094
 20
186.8187461077
 30
0.0
 40
4.000000000000028
100
AcDbArc
 50
180.0
 51
270.0
  0
ARC
  5
26F
330
1F
100
AcDbEntity
  8
0
  6
Continuous
 62
     7
370
    25
100
AcDbCircle
 10
423.3201768094
 20
218.8187461077
 30
0.0
 40
4.0
100
AcDbArc
 50
90.0
 51
180.0
  0
LINE
  5
270
330
1F
100
AcDbEntity
  8
0
  6
Continuous
 62
     7
370
    25
100
AcDbLine
 10
477.3201777631
 20
222.8187456606
 30
0.0
 11
423.3201763624
 21
222.8187456606
 31
0.0
  0
LINE
  5
271
330
1F
100
AcDbEntity
  8
0
  6
Continuous
 62
     7
370
    25
100
AcDbLine
 10
419.3201775694
 20
218.8187468676
 30
0.0
 11
419.3201775694
 21
186.8187453477
 31
0.0
  0
LINE
  5
272
330
1F
100
AcDbEntity
  8
0
  6
Continuous
 62
     7
370
    25
100
AcDbLine
 10
481.3201784187
 20
186.8187453477
 30
0.0
 11
481.3201784187
 21
218.8187468676
 31
0.0
  0
SPLINE
  5
273
330
1F
100
AcDbEntity
  8
0
  6
Continuous
 62
     7
370
    25
100
AcDbSpline
210
0.0
220
0.0
230
1.0
 70
     8
 71
     3
 72
    16
 73
    12
 74
     0
 42
0.000000001
 43
0.00000001
 40
0.0
 40
0.0
 40
0.0
 40
0.0
 40
0.1121121607525912
 40
0.2242100601732986
 40
0.3362853004369429
 40
0.4482513315288417
 40
0.5601026650486526
 40
0.6700184159924673
 40
0.7799756280523217
 40
0.8899540382444738
 40
0.9999999999999999
 40
0.9999999999999999
 40
0.9999999999999999
 40
0.9999999999999999
 10
298.5765843683158
 20
174.3043236313918
 30
0.0
 10
298.5788491933416
 20
174.1815063024556
 30
0.0
 10
298.5833785552937
 20
173.935887267676
 30
0.0
 10
298.6258404051344
 20
173.5692584792413
 30
0.0
 10
298.7076268499046
 20
173.2095618233828
 30
0.0
 10
298.8444452460785
 20
172.8649543391207
 30
0.0
 10
299.0665079389237
 20
172.5686494448254
 30
0.0
 10
299.3562234475287
 20
172.3427863257394
 30
0.0
 10
299.6889162807224
 20
172.194983713045
 30
0.0
 10
300.0436638513174
 20
172.1139959964913
 30
0.0
 10
300.2848736920378
 20
172.1051980032429
 30
0.0
 10
300.4055156403457
 20
172.1007976560452
 30
0.0
  0
SPLINE
  5
274
330
1F
100
AcDbEntity
  8
0
  6
Continuous
 62
     7
370
    25
100
AcDbSpline
210
0.0
220
0.0
230
1.0
 70
     8
 71
     3
 72
    13
 73
     9
 74
     0
 42
0.000000001
 43
0.00000001
 40
0.0
 40
0.0
 40
0.0
 40
0.0
 40
0.1866779889629885
 40
0.373410448350621
 40
0.5599835082734306
 40
0.7066013310067061
 40
0.8534004694299224
 40
1.0
 40
1.0
 40
1.0
 40
1.0
 10
300.4055156403457
 20
172.1007976560452
 30
0.0
 10
300.5384954511636
 20
172.1060959593453
 30
0.0
 10
300.8044938747321
 20
172.1166941119276
 30
0.0
 10
301.1912487715459
 20
172.2268108598198
 30
0.0
 10
301.5194355628389
 20
172.4042422763095
 30
0.0
 10
301.7780574308957
 20
172.6292763699093
 30
0.0
 10
301.9718108174134
 20
172.8805722782583
 30
0.0
 10
302.0427485835608
 20
173.0779142256639
 30
0.0
 10
302.0781933360969
 20
173.1765180705645
 30
0.0
  0
SPLINE
  5
275
330
1F
100
AcDbEntity
  8
0
  6
Continuous
 62
     7
370
    25
100
AcDbSpline
210
0.0
220
0.0
230
1.0
 70
     8
 71
     3
 72
    10
 73
     6
 74
     0
 42
0.000000001
 43
0.00000001
 40
0.0
 40
0.0
 40
0.0
 40
0.0
 40
0.2798487024284943
 40
0.559895195898158
 40
1.0
 40
1.0
 40
1.0
 40
1.0
 10
302.0781933360969
 20
173.1765180705645
 30
0.0
 10
302.0991467743135
 20
173.2825805196688
 30
0.0
 10
302.1410684601857
 20
173.4947803805342
 30
0.0
 10
302.1613998916749
 20
173.8808835716316
 30
0.0
 10
302.1644622257104
 20
174.1586252689082
 30
0.0
 10
302.1663337045585
 20
174.3283610670426
 30
0.0
  0
LINE
  5
276
330
1F
100
AcDbEntity
  8
0
  6
Continuous
 62
     7
370
    25
100
AcDbLine
 10
302.1663337046
 20
174.328361067
 30
0.0
 11
302.1663337046
 21
176.7161827414
 31
0.0
  0
LINE
  5
277
330
1F
100
AcDbEntity
  8
0
  6
Continuous
 62
     7
370
    25
100
AcDbLine
 10
302.1663337046
 20
176.7161827414
 30
0.0
 11
298.5765843683
 21
176.7161827414
 31
0.0
  0
LINE
  5
278
330
1F
100
AcDbEntity
  8
0
  6
Continuous
 62
     7
370
    25
100
AcDbLine
 10
298.5765843683
 20
176.7161827414
 30
0.0
 11
298.5765843683
 21
174.3043236314
 31
0.0
  0
LINE
  5
279
330
1F
100
AcDbEntity
  8
0
  6
Continuous
 62
     7
370
    25
100
AcDbLine
 10
293.3201774054
 20
178.12643795
 30
0.0
 11
303.3201753193
 21
178.12643795
 31
0.0
  0
LINE
  5
27A
330
1F
100
AcDbEntity
  8
0
  6
Continuous
 62
     7
370
    25
100
AcDbLine
 10
303.3201753193
 20
178.12643795
 30
0.0
 11
303.3201753193
 21
174.4525603829
 31
0.0
  0
SPLINE
  5
27B
330
1F
100
AcDbEntity
  8
0
  6
Continuous
 62
     7
370
    25
100
AcDbSpline
210
0.0
220
0.0
230
1.0
 70
     8
 71
     3
 72
     9
 73
     5
 74
     0
 42
0.000000001
 43
0.00000001
 40
0.0
 40
0.0
 40
0.0
 40
0.0
 40
0.560102093214027
 40
1.0
 40
1.0
 40
1.0
 40
1.0
 10
303.3201753192817
 20
174.4525603829481
 30
0.0
 10
303.3189845462185
 20
174.1746785725093
 30
0.0
 10
303.3168585533366
 20
173.6785515024526
 30
0.0
 10
303.2537785460323
 20
173.186598318119
 30
0.0
 10
303.226029782859
 20
172.9701891420939
 30
0.0
  0
SPLINE
  5
27C
330
1F
100
AcDbEntity
  8
0
  6
Continuous
 62
     7
370
    25
100
AcDbSpline
210
0.0
220
0.0
230
1.0
 70
     8
 71
     3
 72
    14
 73
    10
 74
     0
 42
0.000000001
 43
0.00000001
 40
0.0
 40
0.0
 40
0.0
 40
0.0
 40
0.1400630665396622
 40
0.2800740564185151
 40
0.4199625618616465
 40
0.5599169283713069
 40
0.7065751185982136
 40
0.8532940799788279
 40
1.0
 40
1.0
 40
1.0
 40
1.0
 10
303.226029782859
 20
172.9701891420939
 30
0.0
 10
303.1885877952287
 20
172.7894450084289
 30
0.0
 10
303.1137177412234
 20
172.4280239433326
 30
0.0
 10
302.8850902918873
 20
171.919696790674
 30
0.0
 10
302.548123650591
 20
171.4751752485229
 30
0.0
 10
302.1006197907805
 20
171.1281564134359
 30
0.0
 10
301.587410551045
 20
170.8743336516698
 30
0.0
 10
301.0253317259084
 20
170.71605246611
 30
0.0
 10
300.6388231239483
 20
170.699045535033
 30
0.0
 10
300.4455774122154
 20
170.6905424474337
 30
0.0
  0
SPLINE
  5
27D
330
1F
100
AcDbEntity
  8
0
  6
Continuous
 62
     7
370
    25
100
AcDbSpline
210
0.0
220
0.0
230
1.0
 70
     8
 71
     3
 72
    17
 73
    13
 74
     0
 42
0.000000001
 43
0.00000001
 40
0.0
 40
0.0
 40
0.0
 40
0.0
 40
0.0933509180662164
 40
0.1866874547963978
 40
0.2800290222918445
 40
0.3733588745372383
 40
0.4666634342315656
 40
0.5599113497372114
 40
0.6698461963407318
 40
0.7798786044267805
 40
0.8899293157609326
 40
0.9999999999999999
 40
0.9999999999999999
 40
0.9999999999999999
 40
0.9999999999999999
 10
300.4455774122154
 20
170.6905424474337
 30
0.0
 10
300.2789707400724
 20
170.6961827619115
 30
0.0
 10
299.9457830626635
 20
170.7074625219388
 30
0.0
 10
299.4549762527265
 20
170.8122508146224
 30
0.0
 10
298.9858009946582
 20
170.9895566490371
 30
0.0
 10
298.5562105814057
 20
171.2474234253451
 30
0.0
 10
298.1670535375938
 20
171.5653245947365
 30
0.0
 10
297.8527876894573
 20
171.9976384370951
 30
0.0
 10
297.6378337622747
 20
172.5174229708417
 30
0.0
 10
297.5028214193564
 20
173.0916178426468
 30
0.0
 10
297.4329933146881
 20
173.6773793540972
 30
0.0
 10
297.4261598139723
 20
174.0699561380428
 30
0.0
 10
297.4227427535926
 20
174.2662623404124
 30
0.0
  0
LINE
  5
27E
330
1F
100
AcDbEntity
  8
0
  6
Continuous
 62
     7
370
    25
100
AcDbLine
 10
297.4227427536
 20
174.2662623404
 30
0.0
 11
297.4227427536
 21
176.7161827414
 31
0.0
  0
LINE
  5
27F
330
1F
100
AcDbEntity
  8
0
  6
Continuous
 62
     7
370
    25
100
AcDbLine
 10
297.4227427536
 20
176.7161827414
 30
0.0
 11
293.3201774054
 21
176.7161827414
 31
0.0
  0
LINE
  5
280
330
1F
100
AcDbEntity
  8
0
  6
Continuous
 62
     7
370
    25
100
AcDbLine
 10
293.3201774054
 20
176.7161827414
 30
0.0
 11
293.3201774054
 21
178.12643795
 31
0.0
  0
SPLINE
  5
281
330
1F
100
AcDbEntity
  8
0
  6
Continuous
 62
     7
370
    25
100
AcDbSpline
210
0.0
220
0.0
230
1.0
 70
     8
 71
     3
 72
    16
 73
    12
 74
     0
 42
0.000000001
 43
0.00000001
 40
0.0
 40
0.0
 40
0.0
 40
0.0
 40
0.11211212943941
 40
0.2242100367515965
 40
0.3362852849051247
 40
0.4482517617879942
 40
0.5601017422615338
 40
0.670018392762391
 40
0.7799756125630242
 40
0.8899540304974474
 40
0.9999999999999999
 40
0.9999999999999999
 40
0.9999999999999999
 40
0.9999999999999999
 10
450.5765869313155
 20
174.3043236313918
 30
0.0
 10
450.578850147403
 20
174.181506271953
 30
0.0
 10
450.583376292475
 20
173.9358871332283
 30
0.0
 10
450.6258399400911
 20
173.5692587170699
 30
0.0
 10
450.7076241114821
 20
173.2095604956961
 30
0.0
 10
450.8444499469668
 20
172.8649580402989
 30
0.0
 10
451.0665022354942
 20
172.5686456138733
 30
0.0
 10
451.3562225117471
 20
172.3427878489877
 30
0.0
 10
451.6889148180571
 20
172.1949834133041
 30
0.0
 10
452.0436627641804
 20
172.1139960714863
 30
0.0
 10
452.2848725548036
 20
172.1051980282464
 30
0.0
 10
452.4055144780551
 20
172.1007976560452
 30
0.0
  0
SPLINE
  5
282
330
1F
100
AcDbEntity
  8
0
  6
Continuous
 62
     7
370
    25
100
AcDbSpline
210
0.0
220
0.0
230
1.0
 70
     8
 71
     3
 72
    13
 73
     9
 74
     0
 42
0.000000001
 43
0.00000001
 40
0.0
 40
0.0
 40
0.0
 40
0.0
 40
0.1866780357538827
 40
0.3734122231279771
 40
0.5599837972277963
 40
0.7066029733394138
 40
0.8534011078622891
 40
1.0
 40
1.0
 40
1.0
 40
1.0
 10
452.4055144780551
 20
172.1007976560452
 30
0.0
 10
452.538494198054
 20
172.1060961789336
 30
0.0
 10
452.8044936375446
 20
172.116694818474
 30
0.0
 10
453.191249944698
 20
172.2268087256782
 30
0.0
 10
453.5194347984481
 20
172.4042450196339
 30
0.0
 10
453.7780600923411
 20
172.6292738493831
 30
0.0
 10
453.9718095914465
 20
172.8805729682365
 30
0.0
 10
454.0427448865942
 20
173.0779143738453
 30
0.0
 10
454.078188448516
 20
173.1765180705645
 30
0.0
  0
SPLINE
  5
283
330
1F
100
AcDbEntity
  8
0
  6
Continuous
 62
     7
370
    25
100
AcDbSpline
210
0.0
220
0.0
230
1.0
 70
     8
 71
     3
 72
    10
 73
     6
 74
     0
 42
0.000000001
 43
0.00000001
 40
0.0
 40
0.0
 40
0.0
 40
0.0
 40
0.2798490689332035
 40
0.5598956080841421
 40
1.0
 40
1.0
 40
1.0
 40
1.0
 10
454.078188448516
 20
173.1765180705645
 30
0.0
 10
454.0991429834589
 20
173.2825804931261
 30
0.0
 10
454.141066839517
 20
173.4947801791977
 30
0.0
 10
454.1614053053611
 20
173.8808833349929
 30
0.0
 10
454.1644612460705
 20
174.1586252241995
 30
0.0
 10
454.1663288169776
 20
174.3283610670426
 30
0.0
  0
LINE
  5
284
330
1F
100
AcDbEntity
  8
0
  6
Continuous
 62
     7
370
    25
100
AcDbLine
 10
454.166328817
 20
174.328361067
 30
0.0
 11
454.166328817
 21
176.7161827414
 31
0.0
  0
LINE
  5
285
330
1F
100
AcDbEntity
  8
0
  6
Continuous
 62
     7
370
    25
100
AcDbLine
 10
450.5765869313
 20
176.7161827414
 30
0.0
 11
450.5765869313
 21
174.3043236314
 31
0.0
  0
LINE
  5
286
330
1F
100
AcDbEntity
  8
0
  6
Continuous
 62
     7
370
    25
100
AcDbLine
 10
455.3201778823
 20
178.12643795
 30
0.0
 11
455.3201778823
 21
174.4525603829
 31
0.0
  0
SPLINE
  5
287
330
1F
100
AcDbEntity
  8
0
  6
Continuous
 62
     7
370
    25
100
AcDbSpline
210
0.0
220
0.0
230
1.0
 70
     8
 71
     3
 72
     9
 73
     5
 74
     0
 42
0.000000001
 43
0.00000001
 40
0.0
 40
0.0
 40
0.0
 40
0.0
 40
0.5601019699028955
 40
1.0
 40
1.0
 40
1.0
 40
1.0
 10
455.3201778822815
 20
174.4525603829481
 30
0.0
 10
455.3189859568271
 20
174.1746785339374
 30
0.0
 10
455.3168579060109
 20
173.6785512857885
 30
0.0
 10
455.2537749592784
 20
173.186598294057
 30
0.0
 10
455.2260248952781
 20
172.9701891420939
 30
0.0
  0
SPLINE
  5
288
330
1F
100
AcDbEntity
  8
0
  6
Continuous
 62
     7
370
    25
100
AcDbSpline
210
0.0
220
0.0
230
1.0
 70
     8
 71
     3
 72
    14
 73
    10
 74
     0
 42
0.000000001
 43
0.00000001
 40
0.0
 40
0.0
 40
0.0
 40
0.0
 40
0.1400628729490572
 40
0.280073894347445
 40
0.4199624312825374
 40
0.5599168292989856
 40
0.7065750525418574
 40
0.8532940469521175
 40
1.0
 40
1.0
 40
1.0
 40
1.0
 10
455.2260248952781
 20
172.9701891420939
 30
0.0
 10
455.188584448067
 20
172.7894449357748
 30
0.0
 10
455.113717414172
 20
172.4280234349967
 30
0.0
 10
454.8850888732794
 20
171.9196968537892
 30
0.0
 10
454.5481225568823
 20
171.4751752316354
 30
0.0
 10
454.1006186091339
 20
171.1281564182021
 30
0.0
 10
453.58740939402
 20
170.8743336503732
 30
0.0
 10
453.0253305623013
 20
170.7160524664342
 30
0.0
 10
452.6388219612189
 20
170.6990455351411
 30
0.0
 10
452.4455762499248
 20
170.6905424474337
 30
0.0
  0
SPLINE
  5
289
330
1F
100
AcDbEntity
  8
0
  6
Continuous
 62
     7
370
    25
100
AcDbSpline
210
0.0
220
0.0
230
1.0
 70
     8
 71
     3
 72
    17
 73
    13
 74
     0
 42
0.000000001
 43
0.00000001
 40
0.0
 40
0.0
 40
0.0
 40
0.0
 40
0.0933509543366222
 40
0.1866868456271065
 40
0.2800290997324973
 40
0.3733583890611229
 40
0.4666629850078441
 40
0.5599113499668682
 40
0.669845962921693
 40
0.7798785787561536
 40
0.889929249116095
 40
1.0
 40
1.0
 40
1.0
 40
1.0
 10
452.4455762499248
 20
170.6905424474337
 30
0.0
 10
452.2789695348109
 20
170.6961826016648
 30
0.0
 10
451.9457829881288
 20
170.7074620000355
 30
0.0
 10
451.4549768448472
 20
170.8122523633882
 30
0.0
 10
450.9858013839682
 20
170.9895546262469
 30
0.0
 10
450.5562123449662
 20
171.2474245654317
 30
0.0
 10
450.1670566799722
 20
171.5653256880629
 30
0.0
 10
449.8527847577328
 20
171.9976361513255
 30
0.0
 10
449.6378392591789
 20
172.5174247850267
 30
0.0
 10
449.5028170828764
 20
173.0916167385958
 30
0.0
 10
449.4329985244936
 20
173.677379854846
 30
0.0
 10
449.4261607769565
 20
174.0699562409946
 30
0.0
 10
449.422741591302
 20
174.2662623404124
 30
0.0
  0
LINE
  5
28A
330
1F
100
AcDbEntity
  8
0
  6
Continuous
 62
     7
370
    25
100
AcDbLine
 10
449.4227415913
 20
174.2662623404
 30
0.0
 11
449.4227415913
 21
176.7161827414
 31
0.0
  0
LINE
  5
28B
330
1F
100
AcDbEntity
  8
0
  6
Continuous
 62
     7
370
    25
100
AcDbLine
 10
449.4227415913
 20
176.7161827414
 30
0.0
 11
445.3201762432
 21
176.7161827414
 31
0.0
  0
LINE
  5
28C
330
1F
100
AcDbEntity
  8
0
  6
Continuous
 62
     7
370
    25
100
AcDbLine
 10
445.3201762432
 20
176.7161827414
 30
0.0
 11
445.3201762432
 21
178.12643795
 31
0.0
  0
LINE
  5
28D
330
1F
100
AcDbEntity
  8
0
  6
Continuous
 62
     7
370
    25
100
AcDbLine
 10
445.3201762432
 20
178.12643795
 30
0.0
 11
455.3201778823
 21
178.12643795
 31
0.0
  0
LINE
  5
28E
330
1F
100
AcDbEntity
  8
0
  6
Continuous
 62
     7
370
    25
100
AcDbLine
 10
454.166328817
 20
176.7161827414
 30
0.0
 11
450.5765869313
 21
176.7161827414
 31
0.0
  0
LINE
  5
28F
330
1F
100
AcDbEntity
  8
0
  6
Continuous
 62
     7
370
    25
100
AcDbLine
 10
293.3201774054
 20
166.2033632277
 30
0.0
 11
301.1126427942
 21
166.2033632277
 31
0.0
  0
SPLINE
  5
290
330
1F
100
AcDbEntity
  8
0
  6
Continuous
 62
     7
370
    25
100
AcDbSpline
210
0.0
220
0.0
230
1.0
 70
     8
 71
     3
 72
    11
 73
     7
 74
     0
 42
0.000000001
 43
0.00000001
 40
0.0
 40
0.0
 40
0.0
 40
0.0
 40
0.2798937909025042
 40
0.5599074340177318
 40
0.7799834846418944
 40
1.0
 40
1.0
 40
1.0
 40
1.0
 10
301.1126427942191
 20
166.203363227711
 30
0.0
 10
300.940132323091
 20
166.3942775496441
 30
0.0
 10
300.5950375108085
 20
166.7761879441768
 30
0.0
 10
300.2107381753842
 20
167.3824427377343
 30
0.0
 10
299.8787383871228
 20
167.9544337257219
 30
0.0
 10
299.718428668728
 20
168.3255305809319
 30
0.0
 10
299.6382846527969
 20
168.511053907738
 30
0.0
  0
SPLINE
  5
291
330
1F
100
AcDbEntity
  8
0
  6
Continuous
 62
     7
370
    25
100
AcDbSpline
210
0.0
220
0.0
230
1.0
 70
     8
 71
     3
 72
    13
 73
     9
 74
     0
 42
0.000000001
 43
0.00000001
 40
0.0
 40
0.0
 40
0.0
 40
0.0
 40
0.186673643569632
 40
0.3733662230370213
 40
0.5600253301908527
 40
0.7066929850401037
 40
0.8534194957659035
 40
1.0
 40
1.0
 40
1.0
 40
1.0
 10
300.8201777034675
 20
168.511053907738
 30
0.0
 10
300.9291429192722
 20
168.3019065080947
 30
0.0
 10
301.1470844041516
 20
167.8835904932061
 30
0.0
 10
301.5469791415406
 20
167.2985634829362
 30
0.0
 10
301.969900919322
 20
166.7948347859578
 30
0.0
 10
302.402558358042
 20
166.3701780376284
 30
0.0
 10
302.8322500447979
 20
166.0142392087656
 30
0.0
 10
303.1575875448128
 20
165.8358044358305
 30
0.0
 10
303.3201753192817
 20
165.7466314612486
 30
0.0
  0
LINE
  5
292
330
1F
100
AcDbEntity
  8
0
  6
Continuous
 62
     7
370
    25
100
AcDbLine
 10
303.3201753193
 20
165.7466314612
 30
0.0
 11
303.3201753193
 21
164.9213120221
 31
0.0
  0
LINE
  5
293
330
1F
100
AcDbEntity
  8
0
  6
Continuous
 62
     7
370
    25
100
AcDbLine
 10
303.3201753193
 20
164.9213120221
 30
0.0
 11
293.3201774054
 21
164.9213120221
 31
0.0
  0
LINE
  5
294
330
1F
100
AcDbEntity
  8
0
  6
Continuous
 62
     7
370
    25
100
AcDbLine
 10
293.3201774054
 20
164.9213120221
 30
0.0
 11
293.3201774054
 21
166.2033632277
 31
0.0
  0
LINE
  5
295
330
1F
100
AcDbEntity
  8
0
  6
Continuous
 62
     7
370
    25
100
AcDbLine
 10
299.6382846528
 20
168.5110539077
 30
0.0
 11
300.8201777035
 21
168.5110539077
 31
0.0
  0
LINE
  5
296
330
1F
100
AcDbEntity
  8
0
  6
Continuous
 62
     7
370
    25
100
AcDbLine
 10
446.6022274488
 20
163.126437354
 30
0.0
 11
445.3201762432
 21
163.126437354
 31
0.0
  0
LINE
  5
297
330
1F
100
AcDbEntity
  8
0
  6
Continuous
 62
     7
370
    25
100
AcDbLine
 10
445.3201762432
 20
163.126437354
 30
0.0
 11
445.3201762432
 21
169.6648992478
 31
0.0
  0
SPLINE
  5
298
330
1F
100
AcDbEntity
  8
0
  6
Continuous
 62
     7
370
    25
100
AcDbSpline
210
0.0
220
0.0
230
1.0
 70
     8
 71
     3
 72
     9
 73
     5
 74
     0
 42
0.000000001
 43
0.00000001
 40
0.0
 40
0.0
 40
0.0
 40
0.0
 40
0.5599580063818714
 40
1.0
 40
1.0
 40
1.0
 40
1.0
 10
445.3201762431537
 20
169.6648992477515
 30
0.0
 10
445.4896648030503
 20
169.6613063261727
 30
0.0
 10
445.7923456433365
 20
169.6548899136243
 30
0.0
 10
446.0820974952235
 20
169.5686386617189
 30
0.0
 10
446.2096004777824
 20
169.5306844888785
 30
0.0
  0
SPLINE
  5
299
330
1F
100
AcDbEntity
  8
0
  6
Continuous
 62
     7
370
    25
100
AcDbSpline
210
0.0
220
0.0
230
1.0
 70
     8
 71
     3
 72
    12
 73
     8
 74
     0
 42
0.000000001
 43
0.00000001
 40
0.0
 40
0.0
 40
0.0
 40
0.0
 40
0.1865791117975629
 40
0.3732524340946179
 40
0.5599070278305156
 40
0.7799449902953277
 40
1.0
 40
1.0
 40
1.0
 40
1.0
 10
446.2096004777824
 20
169.5306844888785
 30
0.0
 10
446.4254524849632
 20
169.4461609171807
 30
0.0
 10
446.8572654907612
 20
169.277071094796
 30
0.0
 10
447.4425100841281
 20
168.8964704402597
 30
0.0
 10
448.0084992778561
 20
168.4252300582388
 30
0.0
 10
448.544805341469
 20
167.860712097022
 30
0.0
 10
448.8883700688029
 20
167.4369056976254
 30
0.0
 10
449.0601590865527
 20
167.2249942897417
 30
0.0
  0
SPLINE
  5
29A
330
1F
100
AcDbEntity
  8
0
  6
Continuous
 62
     7
370
    25
100
AcDbSpline
210
0.0
220
0.0
230
1.0
 70
     8
 71
     3
 72
    14
 73
    10
 74
     0
 42
0.000000001
 43
0.00000001
 40
0.0
 40
0.0
 40
0.0
 40
0.0
 40
0.1400105164555311
 40
0.2798838688650778
 40
0.4198226213140971
 40
0.5598060070178128
 40
0.7064896775479941
 40
0.853196927613492
 40
1.0
 40
1.0
 40
1.0
 40
1.0
 10
452.5477423363601
 20
164.5366944252112
 30
0.0
 10
452.6751645903377
 20
164.5443984165596
 30
0.0
 10
452.9298842665846
 20
164.5597988518905
 30
0.0
 10
453.2914186383978
 20
164.6996372633258
 30
0.0
 10
453.6013312528619
 20
164.9265210867625
 30
0.0
 10
453.8600978725075
 20
165.2187886388149
 30
0.0
 10
454.0465464877717
 20
165.5693999368699
 30
0.0
 10
454.1483764450026
 20
165.9596588589743
 30
0.0
 10
454.160343390703
 20
166.2262659923789
 30
0.0
 10
454.1663288169777
 20
166.3596130786993
 30
0.0
  0
SPLINE
  5
29B
330
1F
100
AcDbEntity
  8
0
  6
Continuous
 62
     7
370
    25
100
AcDbSpline
210
0.0
220
0.0
230
1.0
 70
     8
 71
     3
 72
    14
 73
    10
 74
     0
 42
0.000000001
 43
0.00000001
 40
0.0
 40
0.0
 40
0.0
 40
0.0
 40
0.1401366672234723
 40
0.2801418604708633
 40
0.4201306183623251
 40
0.5600946602790786
 40
0.7065886861376294
 40
0.8532279014922916
 40
1.0
 40
1.0
 40
1.0
 40
1.0
 10
454.1663288169776
 20
166.3596130786993
 30
0.0
 10
454.1607911436093
 20
166.4972414916103
 30
0.0
 10
454.1497209922292
 20
166.77236919666
 30
0.0
 10
454.0483573246528
 20
167.1758700438722
 30
0.0
 10
453.8590268166031
 20
167.5457611967198
 30
0.0
 10
453.5822048502196
 20
167.8661729621543
 30
0.0
 10
453.2204202654992
 20
168.0992391703737
 30
0.0
 10
452.8042589927298
 20
168.2337094880227
 30
0.0
 10
452.5157684651998
 20
168.2476625072749
 30
0.0
 10
452.3714578741466
 20
168.2546421764948
 30
0.0
  0
LINE
  5
29C
330
1F
100
AcDbEntity
  8
0
  6
Continuous
 62
     7
370
    25
100
AcDbLine
 10
452.3714578741
 20
168.2546421765
 30
0.0
 11
452.4996637398
 21
169.5366933821
 31
0.0
  0
SPLINE
  5
29D
330
1F
100
AcDbEntity
  8
0
  6
Continuous
 62
     7
370
    25
100
AcDbSpline
210
0.0
220
0.0
230
1.0
 70
     8
 71
     3
 72
    16
 73
    12
 74
     0
 42
0.000000001
 43
0.00000001
 40
0.0
 40
0.0
 40
0.0
 40
0.0
 40
0.11205901765105
 40
0.2240800471977292
 40
0.336028973366116
 40
0.447959035109841
 40
0.5599234035871301
 40
0.6699078609645159
 40
0.779902866297684
 40
0.8899434610643951
 40
1.0
 40
1.0
 40
1.0
 40
1.0
 10
452.4996637397682
 20
169.5366933821299
 30
0.0
 10
452.6767306147814
 20
169.5147969274657
 30
0.0
 10
453.0308043389834
 20
169.4710114410544
 30
0.0
 10
453.5453282998646
 20
169.3171680725345
 30
0.0
 10
454.0283188435674
 20
169.082518707529
 30
0.0
 10
454.4537332385703
 20
168.7528810507867
 30
0.0
 10
454.7981752874512
 20
168.3438169566253
 30
0.0
 10
455.0512230241494
 20
167.8767954817286
 30
0.0
 10
455.2148321192765
 20
167.3759368059151
 30
0.0
 10
455.3048917658633
 20
166.8567894276432
 30
0.0
 10
455.3150822640704
 20
166.5066485094883
 30
0.0
 10
455.3201778822814
 20
166.3315653680422
 30
0.0
  0
SPLINE
  5
29E
330
1F
100
AcDbEntity
  8
0
  6
Continuous
 62
     7
370
    25
100
AcDbSpline
210
0.0
220
0.0
230
1.0
 70
     8
 71
     3
 72
    15
 73
    11
 74
     0
 42
0.000000001
 43
0.00000001
 40
0.0
 40
0.0
 40
0.0
 40
0.0
 40
0.1400719934959121
 40
0.2800921871083432
 40
0.4200277866704652
 40
0.5599246875201609
 40
0.6699439734889282
 40
0.7799485886992085
 40
0.8899787453085151
 40
1.0
 40
1.0
 40
1.0
 40
1.0
 10
455.3201778822814
 20
166.3315653680422
 30
0.0
 10
455.3120548251889
 20
166.1148443472302
 30
0.0
 10
455.2958117149834
 20
165.6814824509896
 30
0.0
 10
455.1410588227305
 20
165.0458802285925
 30
0.0
 10
454.8580904331856
 20
164.4554082435955
 30
0.0
 10
454.4643977884947
 20
163.9911140898156
 30
0.0
 10
454.0252353461196
 20
163.6449031684167
 30
0.0
 10
453.5670044490914
 20
163.4133834446115
 30
0.0
 10
453.0705264050417
 20
163.2777676802179
 30
0.0
 10
452.7300109585403
 20
163.2623511652378
 30
0.0
 10
452.559760122863
 20
163.2546432195761
 30
0.0
  0
LINE
  5
29F
330
1F
100
AcDbEntity
  8
0
  6
Continuous
 62
     7
370
    25
100
AcDbLine
 10
446.6022274488
 20
168.0182650565
 30
0.0
 11
446.6022274488
 21
163.126437354
 31
0.0
  0
SPLINE
  5
2A0
330
1F
100
AcDbEntity
  8
0
  6
Continuous
 62
     7
370
    25
100
AcDbSpline
210
0.0
220
0.0
230
1.0
 70
     8
 71
     3
 72
    13
 73
     9
 74
     0
 42
0.000000001
 43
0.00000001
 40
0.0
 40
0.0
 40
0.0
 40
0.0
 40
0.2801802955403251
 40
0.5602870133272001
 40
0.6703220976606353
 40
0.7803046386368674
 40
0.8902202676199858
 40
1.0
 40
1.0
 40
1.0
 40
1.0
 10
449.0601590865527
 20
167.2249942897417
 30
0.0
 10
449.3346662377518
 20
166.9036275566098
 30
0.0
 10
449.8836084522129
 20
166.2609784840118
 30
0.0
 10
450.5875108438061
 20
165.5329814049196
 30
0.0
 10
451.1648135430653
 20
165.0446851009275
 30
0.0
 10
451.5871783000694
 20
164.780023565201
 30
0.0
 10
452.0495705541449
 20
164.5796274462178
 30
0.0
 10
452.3817535682577
 20
164.5509995294387
 30
0.0
 10
452.5477423363601
 20
164.5366944252112
 30
0.0
  0
SPLINE
  5
2A1
330
1F
100
AcDbEntity
  8
0
  6
Continuous
 62
     7
370
    25
100
AcDbSpline
210
0.0
220
0.0
230
1.0
 70
     8
 71
     3
 72
    14
 73
    10
 74
     0
 42
0.000000001
 43
0.00000001
 40
0.0
 40
0.0
 40
0.0
 40
0.0
 40
0.1398499402989417
 40
0.2796966785964005
 40
0.4196715949489785
 40
0.5597148785889087
 40
0.7064577273103015
 40
0.8532263641534426
 40
1.0
 40
1.0
 40
1.0
 40
1.0
 10
452.5597601228629
 20
163.2546432195761
 30
0.0
 10
452.3206657778258
 20
163.2706693095554
 30
0.0
 10
451.842482562051
 20
163.3027211225809
 30
0.0
 10
451.1613721993081
 20
163.5523277220369
 30
0.0
 10
450.5478033601117
 20
163.9258155195047
 30
0.0
 10
449.97450047776
 20
164.3780064582362
 30
0.0
 10
449.4536521538273
 20
164.9046601283271
 30
0.0
 10
448.9445976721857
 20
165.4571816577148
 30
0.0
 10
448.6196642517358
 20
165.8384470360498
 30
0.0
 10
448.4571947747147
 20
166.029082971678
 30
0.0
  0
SPLINE
  5
2A2
330
1F
100
AcDbEntity
  8
0
  6
Continuous
 62
     7
370
    25
100
AcDbSpline
210
0.0
220
0.0
230
1.0
 70
     8
 71
     3
 72
    11
 73
     7
 74
     0
 42
0.000000001
 43
0.00000001
 40
0.0
 40
0.0
 40
0.0
 40
0.0
 40
0.2800327200749865
 40
0.5600629043399321
 40
0.7801102675760148
 40
1.0
 40
1.0
 40
1.0
 40
1.0
 10
448.4571947747146
 20
166.029082971678
 30
0.0
 10
448.2954036747079
 20
166.2257503577819
 30
0.0
 10
447.9718229397787
 20
166.6190833490865
 30
0.0
 10
447.5148482899173
 20
167.160573608226
 30
0.0
 10
447.0802623637269
 20
167.6533459133912
 30
0.0
 10
446.7615343533599
 20
167.8966544015077
 30
0.0
 10
446.6022274487888
 20
168.0182650564768
 30
0.0
  0
LINE
  5
2A3
330
1F
100
AcDbEntity
  8
0
  6
Continuous
 62
     7
370
    25
100
AcDbLine
 10
618.3201803857
 20
247.8187478958
 30
0.0
 11
618.3201803857
 21
157.8187443195
 31
0.0
  0
LINE
  5
2A4
330
1F
100
AcDbEntity
  8
0
  6
Continuous
 62
     7
370
    25
100
AcDbLine
 10
230.3201838427
 20
157.8187443195
 30
0.0
 11
230.3201838427
 21
247.8187478958
 31
0.0
  0
ELLIPSE
  5
2A5
330
1F
100
AcDbEntity
  8
0
  6
Continuous
 62
     7
370
    25
100
AcDbEllipse
 10
271.9529656973
 20
261.8187461077
 30
0.0
 11
16.64953899533674
 21
1.721455839319901
 31
0.0
210
0.0
220
0.0
230
1.0
 40
0.2950804401
 41
3.046554145112031
 42
4.436306271122531
  0
LINE
  5
2A6
330
1F
100
AcDbEntity
  8
0
  6
Continuous
 62
     7
370
    25
100
AcDbLine
 10
267.9032220536
 20
256.6225923477
 30
0.0
 11
267.9032220536
 21
255.8187454818
 31
0.0
  0
ARC
  5
2A7
330
1F
100
AcDbEntity
  8
0
  6
Continuous
 62
     7
370
    25
100
AcDbCircle
 10
249.4614726102
 20
261.8187461077
 30
0.0
 40
6.0
100
AcDbArc
 50
270.0
 51
348.0
  0
ELLIPSE
  5
2A8
330
1F
100
AcDbEntity
  8
0
  6
Continuous
 62
     7
370
    25
100
AcDbEllipse
 10
576.6873879215
 20
261.8187461077
 30
0.0
 11
16.6495389953368
 21
-1.721455839319958
 31
0.0
210
0.0
220
0.0
230
1.0
 40
0.2950804401
 41
4.988471689646867
 42
6.378223815657356
  0
ARC
  5
2A9
330
1F
100
AcDbEntity
  8
0
  6
Continuous
 62
     7
370
    25
100
AcDbCircle
 10
599.1788810086
 20
261.8187461077
 30
0.0
 40
6.0
100
AcDbArc
 50
192.0
 51
270.0
  0
LINE
  5
2AA
330
1F
100
AcDbEntity
  8
0
  6
Continuous
 62
     7
370
    25
100
AcDbLine
 10
580.7371272736
 20
256.6225923477
 30
0.0
 11
580.7371272736
 21
255.8187454818
 31
0.0
  0
LINE
  5
2AB
330
1F
100
AcDbEntity
  8
0
  6
Continuous
 62
     7
370
    25
100
AcDbLine
 10
267.9032220536
 20
256.6225923477
 30
0.0
 11
580.7371272736
 21
256.6225923477
 31
0.0
  0
ELLIPSE
  5
2AC
330
1F
100
AcDbEntity
  8
0
  6
Continuous
 62
     7
370
    25
100
AcDbEllipse
 10
271.9529656973
 20
143.8187461077
 30
0.0
 11
16.6495389953368
 21
-1.721455839319901
 31
0.0
210
0.0
220
0.0
230
1.0
 40
0.2950804401
 41
1.846879036057059
 42
3.236631162067606
  0
ARC
  5
2AD
330
1F
100
AcDbEntity
  8
0
  6
Continuous
 62
     7
370
    25
100
AcDbCircle
 10
249.4614726102
 20
143.8187461077
 30
0.0
 40
5.999999999999972
100
AcDbArc
 50
12.0
 51
90.0
  0
LINE
  5
2AE
330
1F
100
AcDbEntity
  8
0
  6
Continuous
 62
     7
370
    25
100
AcDbLine
 10
267.9032220536
 20
149.0148998676
 30
0.0
 11
267.9032220536
 21
149.8187467335
 31
0.0
  0
ELLIPSE
  5
2AF
330
1F
100
AcDbEntity
  8
0
  6
Continuous
 62
     7
370
    25
100
AcDbEllipse
 10
576.6873879215
 20
143.8187461077
 30
0.0
 11
16.6495389953368
 21
1.721455839319901
 31
0.0
210
0.0
220
0.0
230
1.0
 40
0.2950804401
 41
6.188146798701873
 42
7.577898924712317
  0
LINE
  5
2B0
330
1F
100
AcDbEntity
  8
0
  6
Continuous
 62
     7
370
    25
100
AcDbLine
 10
580.7371272736
 20
149.0148998676
 30
0.0
 11
580.7371272736
 21
149.8187467335
 31
0.0
  0
ARC
  5
2B1
330
1F
100
AcDbEntity
  8
0
  6
Continuous
 62
     7
370
    25
100
AcDbCircle
 10
599.1788810086
 20
143.8187461077
 30
0.0
 40
6.0
100
AcDbArc
 50
90.0
 51
168.0
  0
LINE
  5
2B2
330
1F
100
AcDbEntity
  8
0
  6
Continuous
 62
     7
370
    25
100
AcDbLine
 10
580.7371272736
 20
149.0148998676
 30
0.0
 11
267.9032220536
 21
149.0148998676
 31
0.0
  0
LINE
  5
2B3
330
1F
100
AcDbEntity
  8
0
  6
Continuous
 62
     7
370
    25
100
AcDbLine
 10
255.3303523951
 20
260.5712771295
 30
0.0
 11
261.4671274119
 21
289.4424818336
 31
0.0
  0
ELLIPSE
  5
2B4
330
1F
100
AcDbEntity
  8
0
  6
Continuous
 62
     7
370
    25
100
AcDbEllipse
 10
277.6919928623
 20
288.8187461077
 30
0.0
 11
16.23352802770341
 21
-0.5533688698938022
 31
0.0
210
0.0
220
0.0
230
1.0
 40
0.156676095
 41
1.724087044936115
 42
3.113839170946583
  0
LINE
  5
2B5
330
1F
100
AcDbEntity
  8
0
  6
Continuous
 62
     7
370
    25
100
AcDbLine
 10
275.2989663773
 20
291.4168186365
 30
0.0
 11
267.9032220536
 21
256.6225923477
 31
0.0
  0
LINE
  5
2B6
330
1F
100
AcDbEntity
  8
0
  6
Continuous
 62
     7
370
    25
100
AcDbLine
 10
580.7371272736
 20
256.6225923477
 30
0.0
 11
573.3413978511
 21
291.4168186365
 31
0.0
  0
ELLIPSE
  5
2B7
330
1F
100
AcDbEntity
  8
0
  6
Continuous
 62
     7
370
    25
100
AcDbEllipse
 10
570.9483607564
 20
288.8187461077
 30
0.0
 11
16.2335280277033
 21
0.5533688698939159
 31
0.0
210
0.0
220
0.0
230
1.0
 40
0.156676095
 41
0.0277534826431653
 42
1.417505608653678
  0
LINE
  5
2B8
330
1F
100
AcDbEntity
  8
0
  6
Continuous
 62
     7
370
    25
100
AcDbLine
 10
587.1732368165
 20
289.4424818336
 30
0.0
 11
593.3099969321
 21
260.5712771295
 31
0.0
  0
LINE
  5
2B9
330
1F
100
AcDbEntity
  8
0
  6
Continuous
 62
     7
370
    25
100
AcDbLine
 10
267.9032220536
 20
149.0148998676
 30
0.0
 11
275.2989663773
 21
114.2206735788
 31
0.0
  0
ELLIPSE
  5
2BA
330
1F
100
AcDbEntity
  8
0
  6
Continuous
 62
     7
370
    25
100
AcDbEllipse
 10
277.6919928623
 20
116.8187461077
 30
0.0
 11
16.23352802770336
 21
0.5533688698938448
 31
0.0
210
0.0
220
0.0
230
1.0
 40
0.156676095
 41
3.169346136233064
 42
4.559098262243472
  0
LINE
  5
2BB
330
1F
100
AcDbEntity
  8
0
  6
Continuous
 62
     7
370
    25
100
AcDbLine
 10
261.4671274119
 20
116.1950103818
 30
0.0
 11
255.3303523951
 21
145.0662150858
 31
0.0
  0
LINE
  5
2BC
330
1F
100
AcDbEntity
  8
0
  6
Continuous
 62
     7
370
    25
100
AcDbLine
 10
593.3099969321
 20
145.0662150858
 30
0.0
 11
587.1732368165
 21
116.1950103818
 31
0.0
  0
ELLIPSE
  5
2BD
330
1F
100
AcDbEntity
  8
0
  6
Continuous
 62
     7
370
    25
100
AcDbEllipse
 10
570.9483607564
 20
116.8187461077
 30
0.0
 11
16.23352802770341
 21
-0.553368869893859
 31
0.0
210
0.0
220
0.0
230
1.0
 40
0.156676095
 41
4.865679698525911
 42
6.255431824536494
  0
LINE
  5
2BE
330
1F
100
AcDbEntity
  8
0
  6
Continuous
 62
     7
370
    25
100
AcDbLine
 10
573.3413978511
 20
114.2206735788
 30
0.0
 11
580.7371272736
 21
149.0148998676
 31
0.0
  0
LINE
  5
2BF
330
1F
100
AcDbEntity
  8
0
  6
Continuous
 62
     7
370
    25
100
AcDbLine
 10
573.3413978511
 20
291.4168186365
 30
0.0
 11
275.2989663773
 21
291.4168186365
 31
0.0
  0
LINE
  5
2C0
330
1F
100
AcDbEntity
  8
0
  6
Continuous
 62
     7
370
    25
100
AcDbLine
 10
275.2989663773
 20
114.2206735788
 30
0.0
 11
573.3413978511
 21
114.2206735788
 31
0.0
  0
LINE
  5
2C1
330
1F
100
AcDbEntity
  8
0
  6
Continuous
 62
     7
370
    25
100
AcDbLine
 10
264.4015683824
 20
291.8187476574
 30
0.0
 11
275.2989663773
 21
291.8187476574
 31
0.0
  0
LINE
  5
2C2
330
1F
100
AcDbEntity
  8
0
  6
Continuous
 62
     7
370
    25
100
AcDbLine
 10
275.2989663773
 20
291.8187476574
 30
0.0
 11
275.2989663773
 21
291.4168186365
 31
0.0
  0
ARC
  5
2C3
330
1F
100
AcDbEntity
  8
0
  6
Continuous
 62
     7
370
    25
100
AcDbCircle
 10
264.4015651291
 20
288.8187461077
 30
0.0
 40
3.000000000000077
100
AcDbArc
 50
90.0
 51
168.0
  0
LINE
  5
2C4
330
1F
100
AcDbEntity
  8
0
  6
Continuous
 62
     7
370
    25
100
AcDbLine
 10
275.2989663773
 20
291.8187476574
 30
0.0
 11
573.3413978511
 21
291.8187476574
 31
0.0
  0
LINE
  5
2C5
330
1F
100
AcDbEntity
  8
0
  6
Continuous
 62
     7
370
    25
100
AcDbLine
 10
573.3413978511
 20
291.8187476574
 30
0.0
 11
573.3413978511
 21
291.4168186365
 31
0.0
  0
LINE
  5
2C6
330
1F
100
AcDbEntity
  8
0
  6
Continuous
 62
     7
370
    25
100
AcDbLine
 10
573.3413978511
 20
291.8187476574
 30
0.0
 11
584.2387958461
 21
291.8187476574
 31
0.0
  0
ARC
  5
2C7
330
1F
100
AcDbEntity
  8
0
  6
Continuous
 62
     7
370
    25
100
AcDbCircle
 10
584.2387884897
 20
288.8187461077
 30
0.0
 40
3.0
100
AcDbArc
 50
12.0
 51
90.0
  0
LINE
  5
2C8
330
1F
100
AcDbEntity
  8
0
  6
Continuous
 62
     7
370
    25
100
AcDbLine
 10
573.3413978511
 20
113.818744558
 30
0.0
 11
275.2989663773
 21
113.818744558
 31
0.0
  0
LINE
  5
2C9
330
1F
100
AcDbEntity
  8
0
  6
Continuous
 62
     7
370
    25
100
AcDbLine
 10
275.2989663773
 20
113.818744558
 30
0.0
 11
275.2989663773
 21
114.2206735788
 31
0.0
  0
LINE
  5
2CA
330
1F
100
AcDbEntity
  8
0
  6
Continuous
 62
     7
370
    25
100
AcDbLine
 10
573.3413978511
 20
113.818744558
 30
0.0
 11
573.3413978511
 21
114.2206735788
 31
0.0
  0
LINE
  5
2CB
330
1F
100
AcDbEntity
  8
0
  6
Continuous
 62
     7
370
    25
100
AcDbLine
 10
584.2387958461
 20
113.818744558
 30
0.0
 11
573.3413978511
 21
113.818744558
 31
0.0
  0
ARC
  5
2CC
330
1F
100
AcDbEntity
  8
0
  6
Continuous
 62
     7
370
    25
100
AcDbCircle
 10
584.2387884897
 20
116.8187461077
 30
0.0
 40
3.000000000000014
100
AcDbArc
 50
270.0
 51
348.0
  0
LINE
  5
2CD
330
1F
100
AcDbEntity
  8
0
  6
Continuous
 62
     7
370
    25
100
AcDbLine
 10
275.2989663773
 20
113.818744558
 30
0.0
 11
264.4015683824
 21
113.818744558
 31
0.0
  0
ARC
  5
2CE
330
1F
100
AcDbEntity
  8
0
  6
Continuous
 62
     7
370
    25
100
AcDbCircle
 10
264.4015651291
 20
116.8187461077
 30
0.0
 40
3.000000000000016
100
AcDbArc
 50
192.0
 51
270.0
  0
LINE
  5
2CF
330
1F
100
AcDbEntity
  8
0
  6
Continuous
 62
     7
370
    25
100
AcDbLine
 10
630.320174902
 20
208.8187461598
 30
0.0
 11
625.3201796704
 21
208.8187461598
 31
0.0
  0
LINE
  5
2D0
330
1F
100
AcDbEntity
  8
0
  6
Continuous
 62
     7
370
    25
100
AcDbLine
 10
625.3201796704
 20
208.8187461598
 30
0.0
 11
625.3201796704
 21
213.8187460481
 31
0.0
  0
LINE
  5
2D1
330
1F
100
AcDbEntity
  8
0
  6
Continuous
 62
     7
370
    25
100
AcDbLine
 10
625.3201796704
 20
213.8187460481
 30
0.0
 11
630.320174902
 21
213.8187460481
 31
0.0
  0
LINE
  5
2D2
330
1F
100
AcDbEntity
  8
0
  6
Continuous
 62
     7
370
    25
100
AcDbLine
 10
630.320174902
 20
213.8187460481
 30
0.0
 11
630.320174902
 21
208.8187461598
 31
0.0
  0
LINE
  5
2D3
330
1F
100
AcDbEntity
  8
0
  6
Continuous
 62
     7
370
    25
100
AcDbLine
 10
625.3201796704
 20
196.8187460555
 30
0.0
 11
630.320174902
 21
196.8187460555
 31
0.0
  0
LINE
  5
2D4
330
1F
100
AcDbEntity
  8
0
  6
Continuous
 62
     7
370
    25
100
AcDbLine
 10
630.320174902
 20
208.8187461598
 30
0.0
 11
630.320174902
 21
196.8187460555
 31
0.0
  0
LINE
  5
2D5
330
1F
100
AcDbEntity
  8
0
  6
Continuous
 62
     7
370
    25
100
AcDbLine
 10
625.3201796704
 20
208.8187461598
 30
0.0
 11
625.3201796704
 21
196.8187460555
 31
0.0
  0
LINE
  5
2D6
330
1F
100
AcDbEntity
  8
0
  6
Continuous
 62
     7
370
    25
100
AcDbLine
 10
630.320174902
 20
191.8187461673
 30
0.0
 11
625.3201796704
 21
191.8187461673
 31
0.0
  0
LINE
  5
2D7
330
1F
100
AcDbEntity
  8
0
  6
Continuous
 62
     7
370
    25
100
AcDbLine
 10
630.320174902
 20
196.8187460555
 30
0.0
 11
630.320174902
 21
191.8187461673
 31
0.0
  0
LINE
  5
2D8
330
1F
100
AcDbEntity
  8
0
  6
Continuous
 62
     7
370
    25
100
AcDbLine
 10
625.3201796704
 20
191.8187461673
 30
0.0
 11
625.3201796704
 21
196.8187460555
 31
0.0
  0
LINE
  5
2D9
330
1F
100
AcDbEntity
  8
0
  6
Continuous
 62
     7
370
    25
100
AcDbLine
 10
620.3201695376
 20
191.8187461673
 30
0.0
 11
625.3201796704
 21
191.8187461673
 31
0.0
  0
LINE
  5
2DA
330
1F
100
AcDbEntity
  8
0
  6
Continuous
 62
     7
370
    25
100
AcDbLine
 10
620.3201695376
 20
213.8187460481
 30
0.0
 11
620.3201695376
 21
191.8187461673
 31
0.0
  0
LINE
  5
2DB
330
1F
100
AcDbEntity
  8
0
  6
Continuous
 62
     7
370
    25
100
AcDbLine
 10
625.3201796704
 20
213.8187460481
 30
0.0
 11
620.3201695376
 21
213.8187460481
 31
0.0
  0
ARC
  5
2DC
330
1F
100
AcDbEntity
  8
0
  6
Continuous
 62
     7
370
    25
100
AcDbCircle
 10
625.3201768094
 20
222.8187461077
 30
0.0
 40
5.0
100
AcDbArc
 50
270.0
 51
0.0
  0
LINE
  5
2DD
330
1F
100
AcDbEntity
  8
0
  6
Continuous
 62
     7
370
    25
100
AcDbLine
 10
619.1201790267
 20
217.8187457724
 30
0.0
 11
625.3201796704
 21
217.8187457724
 31
0.0
  0
ARC
  5
2DE
330
1F
100
AcDbEntity
  8
0
  6
Continuous
 62
     7
370
    25
100
AcDbCircle
 10
619.1201768094
 20
217.0187461077
 30
0.0
 40
0.8000000000000114
100
AcDbArc
 50
90.0
 51
180.0
  0
ARC
  5
2DF
330
1F
100
AcDbEntity
  8
0
  6
Continuous
 62
     7
370
    25
100
AcDbCircle
 10
619.1201768094
 20
214.6187461077
 30
0.0
 40
0.8000000000000114
100
AcDbArc
 50
180.0
 51
270.0
  0
LINE
  5
2E0
330
1F
100
AcDbEntity
  8
0
  6
Continuous
 62
     7
370
    25
100
AcDbLine
 10
620.3201695376
 20
213.8187460481
 30
0.0
 11
619.1201790267
 21
213.8187460481
 31
0.0
  0
LINE
  5
2E1
330
1F
100
AcDbEntity
  8
0
  6
Continuous
 62
     7
370
    25
100
AcDbLine
 10
619.1201790267
 20
191.8187461673
 30
0.0
 11
620.3201695376
 21
191.8187461673
 31
0.0
  0
ARC
  5
2E2
330
1F
100
AcDbEntity
  8
0
  6
Continuous
 62
     7
370
    25
100
AcDbCircle
 10
619.1201768094
 20
191.0187461077
 30
0.0
 40
0.8000000000000114
100
AcDbArc
 50
90.0
 51
180.0
  0
ARC
  5
2E3
330
1F
100
AcDbEntity
  8
0
  6
Continuous
 62
     7
370
    25
100
AcDbCircle
 10
619.1201768094
 20
188.6187461077
 30
0.0
 40
0.799999999999983
100
AcDbArc
 50
180.0
 51
270.0
  0
LINE
  5
2E4
330
1F
100
AcDbEntity
  8
0
  6
Continuous
 62
     7
370
    25
100
AcDbLine
 10
625.3201796704
 20
187.818746443
 30
0.0
 11
619.1201790267
 21
187.818746443
 31
0.0
  0
ARC
  5
2E5
330
1F
100
AcDbEntity
  8
0
  6
Continuous
 62
     7
370
    25
100
AcDbCircle
 10
625.3201768094
 20
182.8187461077
 30
0.0
 40
5.000000000000028
100
AcDbArc
 50
0.0
 51
90.0
  0
LINE
  5
2E6
330
1F
100
AcDbEntity
  8
0
  6
Continuous
 62
     7
370
    25
100
AcDbLine
 10
630.320174902
 20
117.8187452136
 30
0.0
 11
630.320174902
 21
182.8187465547
 31
0.0
  0
ARC
  5
2E7
330
1F
100
AcDbEntity
  8
0
  6
Continuous
 62
     7
370
    25
100
AcDbCircle
 10
626.3201768094
 20
117.8187461077
 30
0.0
 40
4.000000000000014
100
AcDbArc
 50
270.0
 51
0.0
  0
LINE
  5
2E8
330
1F
100
AcDbEntity
  8
0
  6
Continuous
 62
     7
370
    25
100
AcDbLine
 10
180.3201719218
 20
113.818744558
 30
0.0
 11
264.4015683824
 21
113.818744558
 31
0.0
  0
LINE
  5
2E9
330
1F
100
AcDbEntity
  8
0
  6
Continuous
 62
     7
370
    25
100
AcDbLine
 10
584.2387958461
 20
113.818744558
 30
0.0
 11
626.320181697
 21
113.818744558
 31
0.0
  0
ARC
  5
2EA
330
1F
100
AcDbEntity
  8
0
  6
Continuous
 62
     7
370
    25
100
AcDbCircle
 10
180.3201768094
 20
117.8187461077
 30
0.0
 40
4.000000000000014
100
AcDbArc
 50
180.0
 51
270.0
  0
LINE
  5
2EB
330
1F
100
AcDbEntity
  8
0
  6
Continuous
 62
     7
370
    25
100
AcDbLine
 10
176.3201787167
 20
287.8187470018
 30
0.0
 11
176.3201787167
 21
215.5187459542
 31
0.0
  0
LINE
  5
2EC
330
1F
100
AcDbEntity
  8
0
  6
Continuous
 62
     7
370
    25
100
AcDbLine
 10
176.3201787167
 20
190.1187462612
 30
0.0
 11
176.3201787167
 21
117.8187452136
 31
0.0
  0
ARC
  5
2ED
330
1F
100
AcDbEntity
  8
0
  6
Continuous
 62
     7
370
    25
100
AcDbCircle
 10
180.3201768094
 20
287.8187461077
 30
0.0
 40
4.0
100
AcDbArc
 50
90.0
 51
180.0
  0
LINE
  5
2EE
330
1F
100
AcDbEntity
  8
0
  6
Continuous
 62
     7
370
    25
100
AcDbLine
 10
626.320181697
 20
291.8187476574
 30
0.0
 11
584.2387958461
 21
291.8187476574
 31
0.0
  0
LINE
  5
2EF
330
1F
100
AcDbEntity
  8
0
  6
Continuous
 62
     7
370
    25
100
AcDbLine
 10
264.4015683824
 20
291.8187476574
 30
0.0
 11
180.3201719218
 21
291.8187476574
 31
0.0
  0
ARC
  5
2F0
330
1F
100
AcDbEntity
  8
0
  6
Continuous
 62
     7
370
    25
100
AcDbCircle
 10
626.3201768094
 20
287.8187461077
 30
0.0
 40
4.0
100
AcDbArc
 50
0.0
 51
90.0
  0
LINE
  5
2F1
330
1F
100
AcDbEntity
  8
0
  6
Continuous
 62
     7
370
    25
100
AcDbLine
 10
630.320174902
 20
222.8187456606
 30
0.0
 11
630.320174902
 21
287.8187470018
 31
0.0
  0
CIRCLE
  5
2F2
330
1F
100
AcDbEntity
  8
0
  6
Continuous
 62
     7
370
    25
100
AcDbCircle
 10
611.3201768094
 20
277.8187461077
 30
0.0
 40
7.0
  0
ARC
  5
2F3
330
1F
100
AcDbEntity
  8
0
  6
Continuous
 62
     7
370
    25
100
AcDbCircle
 10
236.3201768094
 20
127.8187461077
 30
0.0
 40
7.000000000000014
100
AcDbArc
 50
270.0
 51
90.0
  0
LINE
  5
2F4
330
1F
100
AcDbEntity
  8
0
  6
Continuous
 62
     7
370
    25
100
AcDbLine
 10
236.3201811009
 20
134.8187424122
 30
0.0
 11
226.3201757365
 21
134.8187424122
 31
0.0
  0
ARC
  5
2F5
330
1F
100
AcDbEntity
  8
0
  6
Continuous
 62
     7
370
    25
100
AcDbCircle
 10
226.3201768094
 20
127.8187461077
 30
0.0
 40
7.000000000000014
100
AcDbArc
 50
90.0
 51
270.0
  0
LINE
  5
2F6
330
1F
100
AcDbEntity
  8
0
  6
Continuous
 62
     7
370
    25
100
AcDbLine
 10
226.3201757365
 20
120.8187438427
 30
0.0
 11
236.3201811009
 21
120.8187438427
 31
0.0
  0
ARC
  5
2F7
330
1F
100
AcDbEntity
  8
0
  6
Continuous
 62
     7
370
    25
100
AcDbCircle
 10
236.3201768094
 20
277.8187461077
 30
0.0
 40
7.0
100
AcDbArc
 50
270.0
 51
90.0
  0
LINE
  5
2F8
330
1F
100
AcDbEntity
  8
0
  6
Continuous
 62
     7
370
    25
100
AcDbLine
 10
236.3201811009
 20
284.8187483727
 30
0.0
 11
226.3201757365
 21
284.8187483727
 31
0.0
  0
ARC
  5
2F9
330
1F
100
AcDbEntity
  8
0
  6
Continuous
 62
     7
370
    25
100
AcDbCircle
 10
226.3201768094
 20
277.8187461077
 30
0.0
 40
7.0
100
AcDbArc
 50
90.0
 51
270.0
  0
LINE
  5
2FA
330
1F
100
AcDbEntity
  8
0
  6
Continuous
 62
     7
370
    25
100
AcDbLine
 10
226.3201757365
 20
270.8187498032
 30
0.0
 11
236.3201811009
 21
270.8187498032
 31
0.0
  0
CIRCLE
  5
2FB
330
1F
100
AcDbEntity
  8
0
  6
Continuous
 62
     7
370
    25
100
AcDbCircle
 10
611.3201768094
 20
127.8187461077
 30
0.0
 40
7.0
  0
ENDSEC
  0
SECTION
  2
OBJECTS
  0
DICTIONARY
  5
C
330
0
100
AcDbDictionary
281
     1
  3
ACAD_GROUP
350
D
  3
ACAD_LAYOUT
350
1A
  3
ACAD_MLINESTYLE
350
17
  3
ACAD_PLOTSETTINGS
350
19
  3
ACAD_PLOTSTYLENAME
350
E
  3
ACAD_SCALELIST
350
47
  0
DICTIONARY
  5
D
102
{ACAD_REACTORS
330
C
102
}
330
C
100
AcDbDictionary
281
     1
  0
DICTIONARY
  5
1A
102
{ACAD_REACTORS
330
C
102
}
330
C
100
AcDbDictionary
281
     1
  3
Layout1
350
1E
  3
Layout2
350
26
  3
Model
350
22
  0
DICTIONARY
  5
17
102
{ACAD_REACTORS
330
C
102
}
330
C
100
AcDbDictionary
281
     1
  3
Standard
350
18
  0
DICTIONARY
  5
19
102
{ACAD_REACTORS
330
C
102
}
330
C
100
AcDbDictionary
281
     1
  0
ACDBDICTIONARYWDFLT
  5
E
102
{ACAD_REACTORS
330
C
102
}
330
C
100
AcDbDictionary
281
     1
  3
Normal
350
F
100
AcDbDictionaryWithDefault
340
F
  0
DICTIONARY
  5
47
102
{ACAD_REACTORS
330
C
102
}
330
C
100
AcDbDictionary
281
     1
  3
A0
350
48
  3
A1
350
49
  3
A2
350
4A
  3
A3
350
4B
  3
A4
350
4C
  3
A5
350
4D
  3
A6
350
4E
  3
A7
350
4F
  3
A8
350
50
  3
A9
350
51
  3
B0
350
52
  3
B1
350
53
  3
B2
350
54
  3
B3
350
55
  3
B4
350
56
  3
B5
350
57
  3
B6
350
58
  3
B7
350
59
  3
B8
350
5A
  3
B9
350
5B
  3
C0
350
5C
  3
C1
350
5D
  3
C2
350
5E
  3
C3
350
5F
  3
C4
350
60
  3
C5
350
61
  3
C6
350
62
  3
C7
350
63
  3
C8
350
64
  3
C9
350
65
  3
D0
350
66
  3
D1
350
67
  3
D2
350
68
  0
LAYOUT
  5
1E
102
{ACAD_REACTORS
330
1A
102
}
330
1A
100
AcDbPlotSettings
  1

  2
none_device
  4

  6

 40
0.0
 41
0.0
 42
0.0
 43
0.0
 44
0.0
 45
0.0
 46
0.0
 47
0.0
 48
0.0
 49
0.0
140
0.0
141
0.0
142
1.0
143
1.0
 70
   688
 72
     1
 73
     0
 74
     5
  7

 75
    16
147
1.0
148
0.0
149
0.0
100
AcDbLayout
  1
Layout1
 70
     1
 71
     1
 10
0.0
 20
0.0
 11
420.0
 21
297.0
 12
0.0
 22
0.0
 32
0.0
 14
1.0000000000E+20
 24
1.0000000000E+20
 34
1.0000000000E+20
 15
-1.0000000000E+20
 25
-1.0000000000E+20
 35
-1.0000000000E+20
146
0.0
 13
0.0
 23
0.0
 33
0.0
 16
1.0
 26
0.0
 36
0.0
 17
0.0
 27
1.0
 37
0.0
 76
     0
330
1B
  0
LAYOUT
  5
26
102
{ACAD_REACTORS
330
1A
102
}
330
1A
100
AcDbPlotSettings
  1

  2
none_device
  4

  6

 40
0.0
 41
0.0
 42
0.0
 43
0.0
 44
0.0
 45
0.0
 46
0.0
 47
0.0
 48
0.0
 49
0.0
140
0.0
141
0.0
142
1.0
143
1.0
 70
   688
 72
     1
 73
     0
 74
     5
  7

 75
    16
147
1.0
148
0.0
149
0.0
100
AcDbLayout
  1
Layout2
 70
     1
 71
     2
 10
0.0
 20
0.0
 11
0.0
 21
0.0
 12
0.0
 22
0.0
 32
0.0
 14
0.0
 24
0.0
 34
0.0
 15
0.0
 25
0.0
 35
0.0
146
0.0
 13
0.0
 23
0.0
 33
0.0
 16
1.0
 26
0.0
 36
0.0
 17
0.0
 27
1.0
 37
0.0
 76
     0
330
23
  0
LAYOUT
  5
22
102
{ACAD_REACTORS
330
1A
102
}
330
1A
100
AcDbPlotSettings
  1

  2
none_device
  4
Letter_(8.50_x_11.00_Inches)
  6

 40
6.35
 41
6.35
 42
6.35000508
 43
6.35000508
 44
215.9
 45
279.4
 46
0.0
 47
0.0
 48
0.0
 49
0.0
140
0.0
141
0.0
142
1.0
143
1.0
 70
  1712
 72
     1
 73
     0
 74
     0
  7

 75
     0
147
1.0
148
0.0
149
0.0
100
AcDbLayout
  1
Model
 70
     1
 71
     0
 10
0.0
 20
0.0
 11
1189.0
 21
841.0
 12
0.0
 22
0.0
 32
0.0
 14
0.0
 24
0.0
 34
0.0
 15
1189.0
 25
841.0
 35
0.0
146
0.0
 13
0.0
 23
0.0
 33
0.0
 16
1.0
 26
0.0
 36
0.0
 17
0.0
 27
1.0
 37
0.0
 76
     0
330
1F
331
29
  0
MLINESTYLE
  5
18
102
{ACAD_REACTORS
330
17
102
}
330
17
100
AcDbMlineStyle
  2
Standard
 70
     0
  3

 62
   256
 51
90.0
 52
90.0
 71
     2
 49
0.5
 62
   256
  6
BYLAYER
 49
-0.5
 62
   256
  6
BYLAYER
  0
ACDBPLACEHOLDER
  5
F
102
{ACAD_REACTORS
330
E
102
}
330
E
  0
SCALE
  5
48
102
{ACAD_REACTORS
330
47
102
}
330
47
100
AcDbScale
 70
     0
300
1:1
140
1.0
141
1.0
290
     1
  0
SCALE
  5
49
102
{ACAD_REACTORS
330
47
102
}
330
47
100
AcDbScale
 70
     0
300
1:2
140
1.0
141
2.0
290
     0
  0
SCALE
  5
4A
102
{ACAD_REACTORS
330
47
102
}
330
47
100
AcDbScale
 70
     0
300
1:4
140
1.0
141
4.0
290
     0
  0
SCALE
  5
4B
102
{ACAD_REACTORS
330
47
102
}
330
47
100
AcDbScale
 70
     0
300
1:5
140
1.0
141
5.0
290
     0
  0
SCALE
  5
4C
102
{ACAD_REACTORS
330
47
102
}
330
47
100
AcDbScale
 70
     0
300
1:8
140
1.0
141
8.0
290
     0
  0
SCALE
  5
4D
102
{ACAD_REACTORS
330
47
102
}
330
47
100
AcDbScale
 70
     0
300
1:10
140
1.0
141
10.0
290
     0
  0
SCALE
  5
4E
102
{ACAD_REACTORS
330
47
102
}
330
47
100
AcDbScale
 70
     0
300
1:16
140
1.0
141
16.0
290
     0
  0
SCALE
  5
4F
102
{ACAD_REACTORS
330
47
102
}
330
47
100
AcDbScale
 70
     0
300
1:20
140
1.0
141
20.0
290
     0
  0
SCALE
  5
50
102
{ACAD_REACTORS
330
47
102
}
330
47
100
AcDbScale
 70
     0
300
1:30
140
1.0
141
30.0
290
     0
  0
SCALE
  5
51
102
{ACAD_REACTORS
330
47
102
}
330
47
100
AcDbScale
 70
     0
300
1:40
140
1.0
141
40.0
290
     0
  0
SCALE
  5
52
102
{ACAD_REACTORS
330
47
102
}
330
47
100
AcDbScale
 70
     0
300
1:50
140
1.0
141
50.0
290
     0
  0
SCALE
  5
53
102
{ACAD_REACTORS
330
47
102
}
330
47
100
AcDbScale
 70
     0
300
1:100
140
1.0
141
100.0
290
     0
  0
SCALE
  5
54
102
{ACAD_REACTORS
330
47
102
}
330
47
100
AcDbScale
 70
     0
300
2:1
140
2.0
141
1.0
290
     0
  0
SCALE
  5
55
102
{ACAD_REACTORS
330
47
102
}
330
47
100
AcDbScale
 70
     0
300
4:1
140
4.0
141
1.0
290
     0
  0
SCALE
  5
56
102
{ACAD_REACTORS
330
47
102
}
330
47
100
AcDbScale
 70
     0
300
8:1
140
8.0
141
1.0
290
     0
  0
SCALE
  5
57
102
{ACAD_REACTORS
330
47
102
}
330
47
100
AcDbScale
 70
     0
300
10:1
140
10.0
141
1.0
290
     0
  0
SCALE
  5
58
102
{ACAD_REACTORS
330
47
102
}
330
47
100
AcDbScale
 70
     0
300
100:1
140
100.0
141
1.0
290
     0
  0
SCALE
  5
59
102
{ACAD_REACTORS
330
47
102
}
330
47
100
AcDbScale
 70
     0
300
1/128" = 1'-0"
140
0.0078125
141
12.0
290
     0
  0
SCALE
  5
5A
102
{ACAD_REACTORS
330
47
102
}
330
47
100
AcDbScale
 70
     0
300
1/64" = 1'-0"
140
0.015625
141
12.0
290
     0
  0
SCALE
  5
5B
102
{ACAD_REACTORS
330
47
102
}
330
47
100
AcDbScale
 70
     0
300
1/32" = 1'-0"
140
0.03125
141
12.0
290
     0
  0
SCALE
  5
5C
102
{ACAD_REACTORS
330
47
102
}
330
47
100
AcDbScale
 70
     0
300
1/16" = 1'-0"
140
0.0625
141
12.0
290
     0
  0
SCALE
  5
5D
102
{ACAD_REACTORS
330
47
102
}
330
47
100
AcDbScale
 70
     0
300
3/32" = 1'-0"
140
0.09375
141
12.0
290
     0
  0
SCALE
  5
5E
102
{ACAD_REACTORS
330
47
102
}
330
47
100
AcDbScale
 70
     0
300
1/8" = 1'-0"
140
0.125
141
12.0
290
     0
  0
SCALE
  5
5F
102
{ACAD_REACTORS
330
47
102
}
330
47
100
AcDbScale
 70
     0
300
3/16" = 1'-0"
140
0.1875
141
12.0
290
     0
  0
SCALE
  5
60
102
{ACAD_REACTORS
330
47
102
}
330
47
100
AcDbScale
 70
     0
300
1/4" = 1'-0"
140
0.25
141
12.0
290
     0
  0
SCALE
  5
61
102
{ACAD_REACTORS
330
47
102
}
330
47
100
AcDbScale
 70
     0
300
3/8" = 1'-0"
140
0.375
141
12.0
290
     0
  0
SCALE
  5
62
102
{ACAD_REACTORS
330
47
102
}
330
47
100
AcDbScale
 70
     0
300
1/2" = 1'-0"
140
0.5
141
12.0
290
     0
  0
SCALE
  5
63
102
{ACAD_REACTORS
330
47
102
}
330
47
100
AcDbScale
 70
     0
300
3/4" = 1'-0"
140
0.75
141
12.0
290
     0
  0
SCALE
  5
64
102
{ACAD_REACTORS
330
47
102
}
330
47
100
AcDbScale
 70
     0
300
1" = 1'-0"
140
1.0
141
12.0
290
     0
  0
SCALE
  5
65
102
{ACAD_REACTORS
330
47
102
}
330
47
100
AcDbScale
 70
     0
300
1-1/2" = 1'-0"
140
1.5
141
12.0
290
     0
  0
SCALE
  5
66
102
{ACAD_REACTORS
330
47
102
}
330
47
100
AcDbScale
 70
     0
300
3" = 1'-0"
140
3.0
141
12.0
290
     0
  0
SCALE
  5
67
102
{ACAD_REACTORS
330
47
102
}
330
47
100
AcDbScale
 70
     0
300
6" = 1'-0"
140
6.0
141
12.0
290
     0
  0
SCALE
  5
68
102
{ACAD_REACTORS
330
47
102
}
330
47
100
AcDbScale
 70
     0
300
1'-0" = 1'-0"
140
12.0
141
12.0
290
     0
  0
ENDSEC
  0
EOF
