  0
SECTION
  2
HEADER
  9
$ACADVER
  1
AC1015
  9
$ACADMAINTVER
 70
     6
  9
$DWGCODEPAGE
  3
ANSI_1252
  9
$INSBASE
 10
0.0
 20
0.0
 30
0.0
  9
$EXTMIN
 10
0.0
 20
0.0
 30
0.0
  9
$EXTMAX
 10
1189.0
 20
841.0
 30
0.0
  9
$LIMMIN
 10
0.0
 20
0.0
  9
$LIMMAX
 10
1189.0
 20
841.0
  9
$ORTHOMODE
 70
     0
  9
$REGENMODE
 70
     1
  9
$FILLMODE
 70
     1
  9
$QTEXTMODE
 70
     0
  9
$MIRRTEXT
 70
     1
  9
$LTSCALE
 40
1.0
  9
$ATTMODE
 70
     1
  9
$TEXTSIZE
 40
3.5277777778
  9
$TRACEWID
 40
1.0
  9
$TEXTSTYLE
  7
Standard
  9
$CLAYER
  8
0
  9
$CELTYPE
  6
ByLayer
  9
$CECOLOR
 62
   256
  9
$CELTSCALE
 40
1.0
  9
$DISPSILH
 70
     0
  9
$DIMSCALE
 40
1.0
  9
$DIMASZ
 40
2.5683186849
  9
$DIMEXO
 40
1.0
  9
$DIMDLI
 40
3.75
  9
$DIMRND
 40
0.0
  9
$DIMDLE
 40
0.0
  9
$DIMEXE
 40
1.0
  9
$DIMTP
 40
0.0
  9
$DIMTM
 40
0.0
  9
$DIMTXT
 40
3.5277777778
  9
$DIMCEN
 40
2.5
  9
$DIMTSZ
 40
0.0
  9
$DIMTOL
 70
     0
  9
$DIMLIM
 70
     0
  9
$DIMTIH
 70
     1
  9
$DIMTOH
 70
     1
  9
$DIMSE1
 70
     0
  9
$DIMSE2
 70
     0
  9
$DIMTAD
 70
     1
  9
$DIMZIN
 70
     0
  9
$DIMBLK
  1

  9
$DIMASO
 70
     1
  9
$DIMSHO
 70
     1
  9
$DIMPOST
  1

  9
$DIMAPOST
  1

  9
$DIMALT
 70
     0
  9
$DIMALTD
 70
     3
  9
$DIMALTF
 40
0.0393700787
  9
$DIMLFAC
 40
1.0
  9
$DIMTOFL
 70
     1
  9
$DIMTVP
 40
0.0
  9
$DIMTIX
 70
     0
  9
$DIMSOXD
 70
     0
  9
$DIMSAH
 70
     0
  9
$DIMBLK1
  1

  9
$DIMBLK2
  1

  9
$DIMSTYLE
  2
ISO-25
  9
$DIMCLRD
 70
     0
  9
$DIMCLRE
 70
     0
  9
$DIMCLRT
 70
     0
  9
$DIMTFAC
 40
1.0
  9
$DIMGAP
 40
1.524
  9
$DIMJUST
 70
     0
  9
$DIMSD1
 70
     0
  9
$DIMSD2
 70
     0
  9
$DIMTOLJ
 70
     0
  9
$DIMTZIN
 70
     0
  9
$DIMALTZ
 70
     0
  9
$DIMALTTZ
 70
     0
  9
$DIMUPT
 70
     0
  9
$DIMDEC
 70
     2
  9
$DIMTDEC
 70
     2
  9
$DIMALTU
 70
     2
  9
$DIMALTTD
 70
     3
  9
$DIMTXSTY
  7
Standard
  9
$DIMAUNIT
 70
     0
  9
$DIMADEC
 70
     2
  9
$DIMALTRND
 40
0.0
  9
$DIMAZIN
 70
     0
  9
$DIMDSEP
 70
    44
  9
$DIMATFIT
 70
     3
  9
$DIMFRAC
 70
     0
  9
$DIMLDRBLK
  1

  9
$DIMLUNIT
 70
     2
  9
$DIMLWD
 70
    -2
  9
$DIMLWE
 70
    -2
  9
$DIMTMOVE
 70
     0
  9
$LUNITS
 70
     2
  9
$LUPREC
 70
     2
  9
$SKETCHINC
 40
1.0
  9
$FILLETRAD
 40
10.0
  9
$AUNITS
 70
     0
  9
$AUPREC
 70
     2
  9
$MENU
  1
.
  9
$ELEVATION
 40
0.0
  9
$PELEVATION
 40
0.0
  9
$THICKNESS
 40
0.0
  9
$LIMCHECK
 70
     0
  9
$CHAMFERA
 40
0.0
  9
$CHAMFERB
 40
0.0
  9
$CHAMFERC
 40
0.0
  9
$CHAMFERD
 40
0.0
  9
$SKPOLY
 70
     0
  9
$TDCREATE
 40
2458983.389587963
  9
$TDUCREATE
 40
2458983.264587963
  9
$TDUPDATE
 40
2458983.389588507
  9
$TDUUPDATE
 40
2458983.264588507
  9
$TDINDWG
 40
0.0000000116
  9
$TDUSRTIMER
 40
0.0000000116
  9
$USRTIMER
 70
     1
  9
$ANGBASE
 50
0.0
  9
$ANGDIR
 70
     0
  9
$PDMODE
 70
     0
  9
$PDSIZE
 40
-1.0
  9
$PLINEWID
 40
0.0
  9
$SPLFRAME
 70
     0
  9
$SPLINETYPE
 70
     6
  9
$SPLINESEGS
 70
     8
  9
$HANDSEED
  5
2E6
  9
$SURFTAB1
 70
     6
  9
$SURFTAB2
 70
     6
  9
$SURFTYPE
 70
     6
  9
$SURFU
 70
     6
  9
$SURFV
 70
     6
  9
$UCSBASE
  2

  9
$UCSNAME
  2

  9
$UCSORG
 10
0.0
 20
0.0
 30
0.0
  9
$UCSXDIR
 10
1.0
 20
0.0
 30
0.0
  9
$UCSYDIR
 10
0.0
 20
1.0
 30
0.0
  9
$UCSORTHOREF
  2

  9
$UCSORTHOVIEW
 70
     0
  9
$UCSORGTOP
 10
0.0
 20
0.0
 30
0.0
  9
$UCSORGBOTTOM
 10
0.0
 20
0.0
 30
0.0
  9
$UCSORGLEFT
 10
0.0
 20
0.0
 30
0.0
  9
$UCSORGRIGHT
 10
0.0
 20
0.0
 30
0.0
  9
$UCSORGFRONT
 10
0.0
 20
0.0
 30
0.0
  9
$UCSORGBACK
 10
0.0
 20
0.0
 30
0.0
  9
$PUCSBASE
  2

  9
$PUCSNAME
  2

  9
$PUCSORG
 10
0.0
 20
0.0
 30
0.0
  9
$PUCSXDIR
 10
1.0
 20
0.0
 30
0.0
  9
$PUCSYDIR
 10
0.0
 20
1.0
 30
0.0
  9
$PUCSORTHOREF
  2

  9
$PUCSORTHOVIEW
 70
     0
  9
$PUCSORGTOP
 10
0.0
 20
0.0
 30
0.0
  9
$PUCSORGBOTTOM
 10
0.0
 20
0.0
 30
0.0
  9
$PUCSORGLEFT
 10
0.0
 20
0.0
 30
0.0
  9
$PUCSORGRIGHT
 10
0.0
 20
0.0
 30
0.0
  9
$PUCSORGFRONT
 10
0.0
 20
0.0
 30
0.0
  9
$PUCSORGBACK
 10
0.0
 20
0.0
 30
0.0
  9
$USERI1
 70
     0
  9
$USERI2
 70
     0
  9
$USERI3
 70
     0
  9
$USERI4
 70
     0
  9
$USERI5
 70
     0
  9
$USERR1
 40
0.0
  9
$USERR2
 40
0.0
  9
$USERR3
 40
0.0
  9
$USERR4
 40
0.0
  9
$USERR5
 40
0.0
  9
$WORLDVIEW
 70
     1
  9
$SHADEDGE
 70
     3
  9
$SHADEDIF
 70
    70
  9
$TILEMODE
 70
     1
  9
$MAXACTVP
 70
    64
  9
$PINSBASE
 10
0.0
 20
0.0
 30
0.0
  9
$PLIMCHECK
 70
     0
  9
$PEXTMIN
 10
1.0000000000E+20
 20
1.0000000000E+20
 30
1.0000000000E+20
  9
$PEXTMAX
 10
-1.0000000000E+20
 20
-1.0000000000E+20
 30
-1.0000000000E+20
  9
$PLIMMIN
 10
0.0
 20
0.0
  9
$PLIMMAX
 10
420.0
 20
297.0
  9
$UNITMODE
 70
     0
  9
$VISRETAIN
 70
     1
  9
$PLINEGEN
 70
     0
  9
$PSLTSCALE
 70
     1
  9
$TREEDEPTH
 70
  3020
  9
$CMLSTYLE
  2
Standard
  9
$CMLJUST
 70
     0
  9
$CMLSCALE
 40
20.0
  9
$PROXYGRAPHICS
 70
     1
  9
$MEASUREMENT
 70
     1
  9
$CELWEIGHT
370
    -1
  9
$ENDCAPS
280
     0
  9
$JOINSTYLE
280
     0
  9
$LWDISPLAY
290
     1
  9
$INSUNITS
 70
     4
  9
$HYPERLINKBASE
  1

  9
$STYLESHEET
  1

  9
$XEDIT
290
     1
  9
$CEPSNTYPE
380
     0
  9
$PSTYLEMODE
290
     1
  9
$FINGERPRINTGUID
  2
{2402CB72-6CDE-47A8-9D1D-F79DF49F2A66}
  9
$VERSIONGUID
  2
{FAEB1C32-E019-11D5-929B-00C0DF256EC4}
  9
$EXTNAMES
290
     1
  9
$PSVPSCALE
 40
0.0
  9
$OLESTARTUP
290
     0
  0
ENDSEC
  0
SECTION
  2
CLASSES
  0
CLASS
  1
ACDBDICTIONARYWDFLT
  2
AcDbDictionaryWithDefault
  3
ObjectDBX Classes
 90
        0
280
     0
281
     0
  0
CLASS
  1
VISUALSTYLE
  2
AcDbVisualStyle
  3
ObjectDBX Classes
 90
     4095
280
     0
281
     0
  0
CLASS
  1
MATERIAL
  2
AcDbMaterial
  3
ObjectDBX Classes
 90
     1153
280
     0
281
     0
  0
CLASS
  1
SCALE
  2
AcDbScale
  3
ObjectDBX Classes
 90
     1153
280
     0
281
     0
  0
CLASS
  1
TABLESTYLE
  2
AcDbTableStyle
  3
ObjectDBX Classes
 90
     4095
280
     0
281
     0
  0
CLASS
  1
MLEADERSTYLE
  2
AcDbMLeaderStyle
  3
ACDB_MLEADERSTYLE_CLASS
 90
     4095
280
     0
281
     0
  0
CLASS
  1
SUN
  2
AcDbSun
  3
SCENEOE
 90
     1153
280
     0
281
     0
  0
CLASS
  1
ACDBPLACEHOLDER
  2
AcDbPlaceHolder
  3
ObjectDBX Classes
 90
        0
280
     0
281
     0
  0
CLASS
  1
LAYOUT
  2
AcDbLayout
  3
ObjectDBX Classes
 90
        0
280
     0
281
     0
  0
ENDSEC
  0
SECTION
  2
TABLES
  0
TABLE
  2
VPORT
  5
8
330
0
100
AcDbSymbolTable
 70
     1
  0
VPORT
  5
29
330
8
100
AcDbSymbolTableRecord
100
AcDbViewportTableRecord
  2
*Active
 70
     0
 10
0.0
 20
0.0
 11
1.0
 21
1.0
 12
594.5
 22
420.5
 13
0.0
 23
0.0
 14
10.0
 24
10.0
 15
10.0
 25
10.0
 16
0.0
 26
0.0
 36
1.0
 17
0.0
 27
0.0
 37
0.0
 40
841.0
 41
1.4137931034
 42
50.0
 43
0.0
 44
0.0
 50
0.0
 51
0.0
 71
     0
 72
  2000
 73
     1
 74
     3
 75
     0
 76
     0
 77
     0
 78
     0
281
     0
 65
     1
110
0.0
120
0.0
130
0.0
111
1.0
121
0.0
131
0.0
112
0.0
122
1.0
132
0.0
 79
     0
146
0.0
  0
ENDTAB
  0
TABLE
  2
LTYPE
  5
5
330
0
100
AcDbSymbolTable
 70
     6
  0
LTYPE
  5
14
330
5
100
AcDbSymbolTableRecord
100
AcDbLinetypeTableRecord
  2
ByBlock
 70
     0
  3

 72
    65
 73
     0
 40
0.0
  0
LTYPE
  5
15
330
5
100
AcDbSymbolTableRecord
100
AcDbLinetypeTableRecord
  2
ByLayer
 70
     0
  3

 72
    65
 73
     0
 40
0.0
  0
LTYPE
  5
16
330
5
100
AcDbSymbolTableRecord
100
AcDbLinetypeTableRecord
  2
Continuous
 70
     0
  3
Solid line
 72
    65
 73
     0
 40
0.0
  0
LTYPE
  5
6E
330
5
100
AcDbSymbolTableRecord
100
AcDbLinetypeTableRecord
  2
HIDDEN
 70
     0
  3
Hidden __ __ __ __ __ __ __ __ __ __ __ __ __ __
 72
    65
 73
     2
 40
1.905
 49
1.27
 74
     0
 49
-0.635
 74
     0
  0
LTYPE
  5
6F
330
5
100
AcDbSymbolTableRecord
100
AcDbLinetypeTableRecord
  2
PHANTOM
 70
     0
  3
Phantom ______  __  __  ______  __  __  ______
 72
    65
 73
     6
 40
12.7
 49
6.35
 74
     0
 49
-1.27
 74
     0
 49
1.27
 74
     0
 49
-1.27
 74
     0
 49
1.27
 74
     0
 49
-1.27
 74
     0
  0
LTYPE
  5
70
330
5
100
AcDbSymbolTableRecord
100
AcDbLinetypeTableRecord
  2
CENTER
 70
     0
  3
Center ____ _ ____ _ ____ _ ____ _ ____ _ ____
 72
    65
 73
     4
 40
10.16
 49
6.35
 74
     0
 49
-1.27
 74
     0
 49
1.27
 74
     0
 49
-1.27
 74
     0
  0
LTYPE
  5
71
330
5
100
AcDbSymbolTableRecord
100
AcDbLinetypeTableRecord
  2
CENTERX2
 70
     0
  3
Center (2x) ________  __  ________  __  _____
 72
    65
 73
     4
 40
20.32
 49
12.7
 74
     0
 49
-2.54
 74
     0
 49
2.54
 74
     0
 49
-2.54
 74
     0
  0
LTYPE
  5
72
330
5
100
AcDbSymbolTableRecord
100
AcDbLinetypeTableRecord
  2
DOT2
 70
     0
  3
Dot (.5x) ........................................
 72
    65
 73
     2
 40
0.635
 49
0.0
 74
     0
 49
-0.635
 74
     0
  0
ENDTAB
  0
TABLE
  2
LAYER
  5
2
330
0
100
AcDbSymbolTable
 70
    12
  0
LAYER
  5
10
330
2
100
AcDbSymbolTableRecord
100
AcDbLayerTableRecord
  2
0
 70
     0
 62
     7
  6
Continuous
370
    -3
390
F
  0
LAYER
  5
73
330
2
100
AcDbSymbolTableRecord
100
AcDbLayerTableRecord
  2
FORMAT
 70
     0
 62
    27
  6
Continuous
370
    -3
390
F
  0
LAYER
  5
74
330
2
100
AcDbSymbolTableRecord
100
AcDbLayerTableRecord
  2
LAYER1
 70
     0
 62
    27
  6
Continuous
370
    35
390
F
  0
LAYER
  5
75
330
2
100
AcDbSymbolTableRecord
100
AcDbLayerTableRecord
  2
LAYER2
 70
     0
 62
    27
  6
Continuous
370
    25
390
F
  0
LAYER
  5
76
330
2
100
AcDbSymbolTableRecord
100
AcDbLayerTableRecord
  2
LAYER3
 70
     0
 62
     7
  6
HIDDEN
370
    25
390
F
  0
LAYER
  5
77
330
2
100
AcDbSymbolTableRecord
100
AcDbLayerTableRecord
  2
LAYER4
 70
     0
 62
     7
  6
Continuous
370
    -3
390
F
  0
LAYER
  5
78
330
2
100
AcDbSymbolTableRecord
100
AcDbLayerTableRecord
  2
LAYER5
 70
     0
 62
     7
  6
Continuous
370
    25
390
F
  0
LAYER
  5
79
330
2
100
AcDbSymbolTableRecord
100
AcDbLayerTableRecord
  2
NECOM
 70
     0
 62
   150
  6
Continuous
370
    25
390
F
  0
LAYER
  5
7A
330
2
100
AcDbSymbolTableRecord
100
AcDbLayerTableRecord
  2
FIRST_ANGLE_AXIS
 70
     0
 62
     3
  6
CENTER
370
    35
390
F
  0
LAYER
  5
7B
330
2
100
AcDbSymbolTableRecord
100
AcDbLayerTableRecord
  2
FIRST_ANGLE_FIGURE
 70
     0
 62
     7
  6
Continuous
370
    25
390
F
  0
LAYER
  5
7C
330
2
100
AcDbSymbolTableRecord
100
AcDbLayerTableRecord
  2
\U+041E\U+0421\U+0415\U+0412\U+042B\U+0415
 70
     0
 62
     7
  6
Continuous
370
    -3
390
F
  0
LAYER
  5
7D
330
2
100
AcDbSymbolTableRecord
100
AcDbLayerTableRecord
  2
\U+0412\U+041E\U+0414\U+042F\U+041D\U+042B\U+0415_\U+0417\U+041D\U+0410\U+041A\U+0418
 70
     0
 62
    11
  6
Continuous
370
    -3
390
F
  0
ENDTAB
  0
TABLE
  2
STYLE
  5
3
330
0
100
AcDbSymbolTable
 70
     1
  0
STYLE
  5
11
330
3
100
AcDbSymbolTableRecord
100
AcDbTextStyleTableRecord
  2
Standard
 70
     0
 40
0.0
 41
1.0
 50
0.0
 71
     0
 42
3.5277777778
  3
txt
  4

  0
ENDTAB
  0
TABLE
  2
VIEW
  5
6
330
0
100
AcDbSymbolTable
 70
     0
  0
ENDTAB
  0
TABLE
  2
UCS
  5
7
330
0
100
AcDbSymbolTable
 70
     0
  0
ENDTAB
  0
TABLE
  2
APPID
  5
9
330
0
100
AcDbSymbolTable
 70
     1
  0
APPID
  5
12
330
9
100
AcDbSymbolTableRecord
100
AcDbRegAppTableRecord
  2
ACAD
 70
     0
  0
ENDTAB
  0
TABLE
  2
DIMSTYLE
  5
A
330
0
100
AcDbSymbolTable
 70
     1
100
AcDbDimStyleTable
  0
DIMSTYLE
105
27
330
A
100
AcDbSymbolTableRecord
100
AcDbDimStyleTableRecord
  2
ISO-25
 70
     0
 41
2.5
 42
0.625
 43
3.75
 44
1.25
 73
     0
 74
     0
 77
     1
 78
     8
140
2.5
141
2.5
143
0.0393700787
147
0.625
171
     3
172
     1
178
     0
271
     2
272
     2
274
     3
278
    44
283
     0
284
     8
340
11
  0
ENDTAB
  0
TABLE
  2
BLOCK_RECORD
  5
1
330
0
100
AcDbSymbolTable
 70
     1
  0
BLOCK_RECORD
  5
1F
330
1
100
AcDbSymbolTableRecord
100
AcDbBlockTableRecord
  2
*Model_Space
340
22
  0
BLOCK_RECORD
  5
1B
330
1
100
AcDbSymbolTableRecord
100
AcDbBlockTableRecord
  2
*Paper_Space
340
1E
  0
BLOCK_RECORD
  5
23
330
1
100
AcDbSymbolTableRecord
100
AcDbBlockTableRecord
  2
*Paper_Space0
340
26
  0
ENDTAB
  0
ENDSEC
  0
SECTION
  2
BLOCKS
  0
BLOCK
  5
20
330
1F
100
AcDbEntity
  8
0
100
AcDbBlockBegin
  2
*Model_Space
 70
     0
 10
0.0
 20
0.0
 30
0.0
  3
*Model_Space
  1

  0
ENDBLK
  5
21
330
1F
100
AcDbEntity
  8
0
100
AcDbBlockEnd
  0
BLOCK
  5
1C
330
1B
100
AcDbEntity
 67
     1
  8
0
100
AcDbBlockBegin
  2
*Paper_Space
 70
     0
 10
0.0
 20
0.0
 30
0.0
  3
*Paper_Space
  1

  0
ENDBLK
  5
1D
330
1B
100
AcDbEntity
 67
     1
  8
0
100
AcDbBlockEnd
  0
BLOCK
  5
24
330
23
100
AcDbEntity
  8
0
100
AcDbBlockBegin
  2
*Paper_Space0
 70
     0
 10
0.0
 20
0.0
 30
0.0
  3
*Paper_Space0
  1

  0
ENDBLK
  5
25
330
23
100
AcDbEntity
  8
0
100
AcDbBlockEnd
  0
ENDSEC
  0
SECTION
  2
ENTITIES
  0
LINE
  5
7E
330
1F
100
AcDbEntity
  8
0
  6
Continuous
 62
     7
370
    25
100
AcDbLine
 10
681.9958773173
 20
511.5186440892
 30
0.0
 11
680.3958800352
 21
511.5186440892
 31
0.0
  0
LINE
  5
7F
330
1F
100
AcDbEntity
  8
0
  6
Continuous
 62
     7
370
    25
100
AcDbLine
 10
680.3958800352
 20
495.5186433293
 30
0.0
 11
681.9958773173
 21
495.5186433293
 31
0.0
  0
LINE
  5
80
330
1F
100
AcDbEntity
  8
0
  6
Continuous
 62
     7
370
    25
100
AcDbLine
 10
680.3958800352
 20
511.5186440892
 30
0.0
 11
678.795867852
 21
511.5186440892
 31
0.0
  0
LINE
  5
81
330
1F
100
AcDbEntity
  8
0
  6
Continuous
 62
     7
370
    25
100
AcDbLine
 10
678.795867852
 20
495.5186433293
 30
0.0
 11
680.3958800352
 21
495.5186433293
 31
0.0
  0
LINE
  5
82
330
1F
100
AcDbEntity
  8
0
  6
Continuous
 62
     7
370
    25
100
AcDbLine
 10
682.5958725727
 20
510.0186429121
 30
0.0
 11
681.9958773173
 21
510.0186429121
 31
0.0
  0
LINE
  5
83
330
1F
100
AcDbEntity
  8
0
  6
Continuous
 62
     7
370
    25
100
AcDbLine
 10
681.9958773173
 20
497.0186435752
 30
0.0
 11
682.5958725727
 21
497.0186435752
 31
0.0
  0
LINE
  5
84
330
1F
100
AcDbEntity
  8
0
  6
Continuous
 62
     7
370
    25
100
AcDbLine
 10
673.7958726204
 20
507.5186434336
 30
0.0
 11
670.6863728083
 21
507.5186434336
 31
0.0
  0
LINE
  5
85
330
1F
100
AcDbEntity
  8
0
  6
Continuous
 62
     7
370
    25
100
AcDbLine
 10
670.6863728083
 20
499.5186439849
 30
0.0
 11
673.7958726204
 21
499.5186439849
 31
0.0
  0
LINE
  5
86
330
1F
100
AcDbEntity
  8
0
  6
Continuous
 62
     7
370
    25
100
AcDbLine
 10
670.6863728083
 20
507.5186434336
 30
0.0
 11
669.9958678997
 21
506.828144113
 31
0.0
  0
LINE
  5
87
330
1F
100
AcDbEntity
  8
0
  6
Continuous
 62
     7
370
    25
100
AcDbLine
 10
669.9958678997
 20
500.2091433056
 30
0.0
 11
670.6863728083
 21
499.5186439849
 31
0.0
  0
LINE
  5
88
330
1F
100
AcDbEntity
  8
0
  6
Continuous
 62
     7
370
    25
100
AcDbLine
 10
686.7153134859
 20
496.0130899347
 30
0.0
 11
687.2958776272
 21
497.0186435752
 31
0.0
  0
LINE
  5
89
330
1F
100
AcDbEntity
  8
0
  6
Continuous
 62
     7
370
    25
100
AcDbLine
 10
687.2958776272
 20
510.0186429121
 30
0.0
 11
686.7153134859
 21
511.0241974838
 31
0.0
  0
LINE
  5
8A
330
1F
100
AcDbEntity
  8
0
  6
Continuous
 62
     7
370
    25
100
AcDbLine
 10
216.7958703554
 20
534.5186422713
 30
0.0
 11
215.395876459
 21
534.5186422713
 31
0.0
  0
LINE
  5
8B
330
1F
100
AcDbEntity
  8
0
  6
Continuous
 62
     7
370
    25
100
AcDbLine
 10
215.395876459
 20
532.2186443157
 30
0.0
 11
210.6958714045
 21
532.2186443157
 31
0.0
  0
LINE
  5
8C
330
1F
100
AcDbEntity
  8
0
  6
Continuous
 62
     7
370
    25
100
AcDbLine
 10
210.6958714045
 20
506.8186427601
 30
0.0
 11
215.395876459
 21
506.8186427601
 31
0.0
  0
LINE
  5
8D
330
1F
100
AcDbEntity
  8
0
  6
Continuous
 62
     7
370
    25
100
AcDbLine
 10
680.3958800352
 20
511.5186440892
 30
0.0
 11
680.3958800352
 21
495.5186433293
 31
0.0
  0
LINE
  5
8E
330
1F
100
AcDbEntity
  8
0
  6
Continuous
 62
     7
370
    25
100
AcDbLine
 10
681.9958773173
 20
511.5186440892
 30
0.0
 11
681.9958773173
 21
495.5186433293
 31
0.0
  0
LINE
  5
8F
330
1F
100
AcDbEntity
  8
0
  6
Continuous
 62
     7
370
    25
100
AcDbLine
 10
682.5958725727
 20
497.8894776799
 30
0.0
 11
682.5958725727
 21
499.7658672877
 31
0.0
  0
LINE
  5
90
330
1F
100
AcDbEntity
  8
0
  6
Continuous
 62
     7
370
    25
100
AcDbLine
 10
682.5958725727
 20
499.7658672877
 30
0.0
 11
686.7153134859
 21
499.7658672877
 31
0.0
  0
SPLINE
  5
91
330
1F
100
AcDbEntity
  8
0
  6
Continuous
 62
     7
370
    25
100
AcDbSpline
210
0.0
220
0.0
230
1.0
 70
     8
 71
     3
 72
    11
 73
     7
 74
     0
 42
0.000000001
 43
0.00000001
 40
0.0
 40
0.0
 40
0.0
 40
0.0
 40
0.247711226510602
 40
0.495365386938525
 40
0.7477052709550465
 40
1.0
 40
1.0
 40
1.0
 40
1.0
 10
686.7153134859278
 20
499.7658672876617
 30
0.0
 10
686.7984218988665
 20
499.6141326253719
 30
0.0
 10
686.9646195787748
 20
499.3106982564256
 30
0.0
 10
687.1473949989937
 20
498.8445063364787
 30
0.0
 10
687.2716496325558
 20
498.3702008815592
 30
0.0
 10
687.2878021107636
 20
498.0497091878474
 30
0.0
 10
687.2958776272013
 20
497.8894776798746
 30
0.0
  0
SPLINE
  5
92
330
1F
100
AcDbEntity
  8
0
  6
Continuous
 62
     7
370
    25
100
AcDbSpline
210
0.0
220
0.0
230
1.0
 70
     8
 71
     3
 72
    12
 73
     8
 74
     0
 42
0.000000001
 43
0.00000001
 40
0.0
 40
0.0
 40
0.0
 40
0.0
 40
0.0700426995071025
 40
0.3004146901135647
 40
0.5308230381047019
 40
0.7653884770992595
 40
1.0
 40
1.0
 40
1.0
 40
1.0
 10
687.2958776272013
 20
497.8894776798746
 30
0.0
 10
687.2952247486805
 20
497.8450053723905
 30
0.0
 10
687.2924245382394
 20
497.6542626602237
 30
0.0
 10
687.2484577586846
 20
497.3175088893163
 30
0.0
 10
687.128529032772
 20
496.8798345301023
 30
0.0
 10
686.9518498515536
 20
496.4441111562826
 30
0.0
 10
686.7941641039184
 20
496.1567730829723
 30
0.0
 10
686.7153134859278
 20
496.0130899347326
 30
0.0
  0
LINE
  5
93
330
1F
100
AcDbEntity
  8
0
  6
Continuous
 62
     7
370
    25
100
AcDbLine
 10
682.5958725727
 20
496.0130899347
 30
0.0
 11
686.7153134859
 21
496.0130899347
 31
0.0
  0
LINE
  5
94
330
1F
100
AcDbEntity
  8
0
  6
Continuous
 62
     7
370
    25
100
AcDbLine
 10
682.5958725727
 20
496.0130899347
 30
0.0
 11
682.5958725727
 21
497.8894776799
 31
0.0
  0
SPLINE
  5
95
330
1F
100
AcDbEntity
  8
0
  6
Continuous
 62
     7
370
    25
100
AcDbSpline
210
0.0
220
0.0
230
1.0
 70
     8
 71
     3
 72
    12
 73
     8
 74
     0
 42
0.000000001
 43
0.00000001
 40
0.0
 40
0.0
 40
0.0
 40
0.0
 40
0.1927571168126284
 40
0.3855272749326127
 40
0.5810819646743279
 40
0.7766618486975514
 40
1.0
 40
1.0
 40
1.0
 40
1.0
 10
687.2958776272013
 20
503.5186427779457
 30
0.0
 10
687.2911772379854
 20
503.2738198982562
 30
0.0
 10
687.2817761415407
 20
502.7841575749732
 30
0.0
 10
687.2081574919465
 20
502.0491496924472
 30
0.0
 10
687.092822158258
 20
501.3164263199963
 30
0.0
 10
686.9317865684012
 20
500.5523912105641
 30
0.0
 10
686.7905898305593
 20
500.0393730981988
 30
0.0
 10
686.7153134859278
 20
499.7658672876617
 30
0.0
  0
LINE
  5
96
330
1F
100
AcDbEntity
  8
0
  6
Continuous
 62
     7
370
    25
100
AcDbLine
 10
687.2958776272
 20
497.8894776799
 30
0.0
 11
687.2958776272
 21
503.5186427779
 31
0.0
  0
LINE
  5
97
330
1F
100
AcDbEntity
  8
0
  6
Continuous
 62
     7
370
    25
100
AcDbLine
 10
682.5958725727
 20
503.5186427779
 30
0.0
 11
682.5958725727
 21
507.2714201309
 31
0.0
  0
LINE
  5
98
330
1F
100
AcDbEntity
  8
0
  6
Continuous
 62
     7
370
    25
100
AcDbLine
 10
682.5958725727
 20
507.2714201309
 30
0.0
 11
686.7153134859
 21
507.2714201309
 31
0.0
  0
SPLINE
  5
99
330
1F
100
AcDbEntity
  8
0
  6
Continuous
 62
     7
370
    25
100
AcDbSpline
210
0.0
220
0.0
230
1.0
 70
     8
 71
     3
 72
    11
 73
     7
 74
     0
 42
0.000000001
 43
0.00000001
 40
0.0
 40
0.0
 40
0.0
 40
0.0
 40
0.3773847153605694
 40
0.5679116479626443
 40
0.7584170335250283
 40
0.9999999999999999
 40
0.9999999999999999
 40
0.9999999999999999
 40
0.9999999999999999
 10
686.7153134859278
 20
507.2714201308748
 30
0.0
 10
686.8391413667885
 20
506.8080803528409
 30
0.0
 10
687.0254851507865
 20
506.1108182587508
 30
0.0
 10
687.1838990829589
 20
505.1602820144434
 30
0.0
 10
687.2760115306966
 20
504.3743504410368
 30
0.0
 10
687.2887535143083
 20
503.8255051750883
 30
0.0
 10
687.2958776272013
 20
503.5186427779457
 30
0.0
  0
LINE
  5
9A
330
1F
100
AcDbEntity
  8
0
  6
Continuous
 62
     7
370
    25
100
AcDbLine
 10
682.5958725727
 20
499.7658672877
 30
0.0
 11
682.5958725727
 21
503.5186427779
 31
0.0
  0
SPLINE
  5
9B
330
1F
100
AcDbEntity
  8
0
  6
Continuous
 62
     7
370
    25
100
AcDbSpline
210
0.0
220
0.0
230
1.0
 70
     8
 71
     3
 72
    12
 73
     8
 74
     0
 42
0.000000001
 43
0.00000001
 40
0.0
 40
0.0
 40
0.0
 40
0.0
 40
0.0700426465774102
 40
0.3004146371676356
 40
0.5308231324893001
 40
0.7653884387182305
 40
1.0
 40
1.0
 40
1.0
 40
1.0
 10
687.2958776272013
 20
509.1478078760168
 30
0.0
 10
687.2952247485731
 20
509.103335560491
 30
0.0
 10
687.2924245360483
 20
508.9125927033103
 30
0.0
 10
687.2484577025074
 20
508.5758393414421
 30
0.0
 10
687.1285291591231
 20
508.1381634788602
 30
0.0
 10
686.9518497491731
 20
507.7024415251301
 30
0.0
 10
686.7941640889634
 20
507.415103371626
 30
0.0
 10
686.7153134859278
 20
507.2714201308748
 30
0.0
  0
LINE
  5
9C
330
1F
100
AcDbEntity
  8
0
  6
Continuous
 62
     7
370
    25
100
AcDbLine
 10
687.2958776272
 20
503.5186427779
 30
0.0
 11
687.2958776272
 21
509.147807876
 31
0.0
  0
LINE
  5
9D
330
1F
100
AcDbEntity
  8
0
  6
Continuous
 62
     7
370
    25
100
AcDbLine
 10
682.5958725727
 20
509.147807876
 30
0.0
 11
682.5958725727
 21
511.0241974838
 31
0.0
  0
LINE
  5
9E
330
1F
100
AcDbEntity
  8
0
  6
Continuous
 62
     7
370
    25
100
AcDbLine
 10
682.5958725727
 20
511.0241974838
 30
0.0
 11
686.7153134859
 21
511.0241974838
 31
0.0
  0
SPLINE
  5
9F
330
1F
100
AcDbEntity
  8
0
  6
Continuous
 62
     7
370
    25
100
AcDbSpline
210
0.0
220
0.0
230
1.0
 70
     8
 71
     3
 72
    11
 73
     7
 74
     0
 42
0.000000001
 43
0.00000001
 40
0.0
 40
0.0
 40
0.0
 40
0.0
 40
0.247711149968588
 40
0.4953655084820713
 40
0.7477053927906371
 40
1.0
 40
1.0
 40
1.0
 40
1.0
 10
686.7153134859278
 20
511.0241974838039
 30
0.0
 10
686.7984219185146
 20
510.8724628678264
 30
0.0
 10
686.964619729847
 20
510.5690284232826
 30
0.0
 10
687.1473949020918
 20
510.1028355799186
 30
0.0
 10
687.2716496276631
 20
509.6285300852804
 30
0.0
 10
687.2878021104358
 20
509.3080390273451
 30
0.0
 10
687.2958776272013
 20
509.1478078760168
 30
0.0
  0
LINE
  5
A0
330
1F
100
AcDbEntity
  8
0
  6
Continuous
 62
     7
370
    25
100
AcDbLine
 10
682.5958725727
 20
507.2714201309
 30
0.0
 11
682.5958725727
 21
509.147807876
 31
0.0
  0
LINE
  5
A1
330
1F
100
AcDbEntity
  8
0
  6
Continuous
 62
     7
370
    25
100
AcDbLine
 10
670.6863728083
 20
507.5186434336
 30
0.0
 11
670.6863728083
 21
499.5186439849
 31
0.0
  0
LINE
  5
A2
330
1F
100
AcDbEntity
  8
0
  6
Continuous
 62
     7
370
    25
100
AcDbLine
 10
669.9958678997
 20
506.828144113
 30
0.0
 11
669.9958678997
 21
500.2091433056
 31
0.0
  0
LINE
  5
A3
330
1F
100
AcDbEntity
  8
0
  6
Continuous
 62
     7
370
    25
100
AcDbLine
 10
687.2958776272
 20
497.0186435752
 30
0.0
 11
687.2958776272
 21
497.8894776799
 31
0.0
  0
LINE
  5
A4
330
1F
100
AcDbEntity
  8
0
  6
Continuous
 62
     7
370
    25
100
AcDbLine
 10
687.2958776272
 20
509.147807876
 30
0.0
 11
687.2958776272
 21
510.0186429121
 31
0.0
  0
CIRCLE
  5
A5
330
1F
100
AcDbEntity
  8
0
  6
Continuous
 62
     7
370
    25
100
AcDbCircle
 10
238.7958745278
 20
519.518643225
 30
0.0
 40
12.69999999999996
  0
CIRCLE
  5
A6
330
1F
100
AcDbEntity
  8
0
  6
Continuous
 62
     7
370
    25
100
AcDbCircle
 10
238.7958745278
 20
519.518643225
 30
0.0
 40
10.74999999999997
  0
ARC
  5
A7
330
1F
100
AcDbEntity
  8
0
  6
Continuous
 62
     7
370
    25
100
AcDbCircle
 10
238.7958745278
 20
519.518643225
 30
0.0
 40
14.99999999999998
100
AcDbArc
 50
224.4932242308
 51
315.5067757692
  0
ARC
  5
A8
330
1F
100
AcDbEntity
  8
0
  6
Continuous
 62
     7
370
    25
100
AcDbCircle
 10
238.7958745278
 20
519.518643225
 30
0.0
 40
15.0
100
AcDbArc
 50
0.0
 51
180.0
  0
LINE
  5
A9
330
1F
100
AcDbEntity
  8
0
  6
Continuous
 62
     7
370
    25
100
AcDbLine
 10
253.7958708323
 20
488.5186431132
 30
0.0
 11
253.7958708323
 21
519.5186416753
 31
0.0
  0
LINE
  5
AA
330
1F
100
AcDbEntity
  8
0
  6
Continuous
 62
     7
370
    25
100
AcDbLine
 10
249.4958725489
 20
488.5186431132
 30
0.0
 11
249.4958725489
 21
509.0062691964
 31
0.0
  0
LINE
  5
AB
330
1F
100
AcDbEntity
  8
0
  6
Continuous
 62
     7
370
    25
100
AcDbLine
 10
223.7958696402
 20
519.5186416753
 30
0.0
 11
223.7958696402
 21
488.5186431132
 31
0.0
  0
LINE
  5
AC
330
1F
100
AcDbEntity
  8
0
  6
Continuous
 62
     7
370
    25
100
AcDbLine
 10
228.0958679236
 20
509.0062691964
 30
0.0
 11
228.0958679236
 21
488.5186431132
 31
0.0
  0
LINE
  5
AD
330
1F
100
AcDbEntity
  8
0
  6
Continuous
 62
     7
370
    25
100
AcDbLine
 10
215.395876459
 20
488.5186431132
 30
0.0
 11
215.395876459
 21
519.5186416753
 31
0.0
  0
LINE
  5
AE
330
1F
100
AcDbEntity
  8
0
  6
Continuous
 62
     7
370
    25
100
AcDbLine
 10
215.395876459
 20
519.5186416753
 30
0.0
 11
216.7958703554
 21
519.5186416753
 31
0.0
  0
LINE
  5
AF
330
1F
100
AcDbEntity
  8
0
  6
Continuous
 62
     7
370
    25
100
AcDbLine
 10
215.395876459
 20
519.5186416753
 30
0.0
 11
215.395876459
 21
534.5186422713
 31
0.0
  0
LINE
  5
B0
330
1F
100
AcDbEntity
  8
0
  6
Continuous
 62
     7
370
    25
100
AcDbLine
 10
210.6958714045
 20
519.5186416753
 30
0.0
 11
210.6958714045
 21
532.2186443157
 31
0.0
  0
LINE
  5
B1
330
1F
100
AcDbEntity
  8
0
  6
Continuous
 62
     7
370
    25
100
AcDbLine
 10
210.6958714045
 20
506.8186427601
 30
0.0
 11
210.6958714045
 21
519.5186416753
 31
0.0
  0
LINE
  5
B2
330
1F
100
AcDbEntity
  8
0
  6
Continuous
 62
     7
370
    25
100
AcDbLine
 10
268.7958714283
 20
544.5186439104
 30
0.0
 11
216.7958703554
 21
544.5186439104
 31
0.0
  0
LINE
  5
B3
330
1F
100
AcDbEntity
  8
0
  6
Continuous
 62
     7
370
    25
100
AcDbLine
 10
216.7958703554
 20
544.5186439104
 30
0.0
 11
216.7958703554
 21
488.5186431132
 31
0.0
  0
LINE
  5
B4
330
1F
100
AcDbEntity
  8
0
  6
Continuous
 62
     7
370
    25
100
AcDbLine
 10
620.7402881897
 20
627.2760014184
 30
0.0
 11
314.8514565743
 21
627.2760014184
 31
0.0
  0
LINE
  5
B5
330
1F
100
AcDbEntity
  8
0
  6
Continuous
 62
     7
370
    25
100
AcDbLine
 10
314.8514565743
 20
627.2760014184
 30
0.0
 11
314.8514565743
 21
629.3973158248
 31
0.0
  0
LINE
  5
B6
330
1F
100
AcDbEntity
  8
0
  6
Continuous
 62
     7
370
    25
100
AcDbLine
 10
314.8514565743
 20
629.3973158248
 30
0.0
 11
620.7402881897
 21
629.3973158248
 31
0.0
  0
LINE
  5
B7
330
1F
100
AcDbEntity
  8
0
  6
Continuous
 62
     7
370
    25
100
AcDbLine
 10
620.7402881897
 20
627.2760014184
 30
0.0
 11
620.7402881897
 21
629.3973158248
 31
0.0
  0
LINE
  5
B8
330
1F
100
AcDbEntity
  8
0
  6
Continuous
 62
     7
370
    25
100
AcDbLine
 10
303.5149362601
 20
611.5940789826
 30
0.0
 11
303.5149362601
 21
488.5186431132
 31
0.0
  0
ELLIPSE
  5
B9
330
1F
100
AcDbEntity
  8
0
  6
Continuous
 62
     7
370
    25
100
AcDbEllipse
 10
316.8053602657
 20
608.891226227
 30
0.0
 11
-3.865343213974427
 21
18.18501006793235
 31
0.0
210
0.0
220
0.0
230
1.0
 40
0.6992527781
 41
6.135634731716722
 42
7.558880483048707
  0
ELLIPSE
  5
BA
330
1F
100
AcDbEntity
  8
0
  6
Continuous
 62
     7
370
    25
100
AcDbEllipse
 10
618.7863887898
 20
608.891226227
 30
0.0
 11
3.865343213974484
 21
18.18501006793224
 31
0.0
210
0.0
220
0.0
230
1.0
 40
0.6992527781
 41
5.007490131310467
 42
6.430735882642468
  0
LINE
  5
BB
330
1F
100
AcDbEntity
  8
0
  6
Continuous
 62
     7
370
    25
100
AcDbLine
 10
632.0768234051
 20
488.5186431132
 30
0.0
 11
632.0768234051
 21
611.5940789826
 31
0.0
  0
LINE
  5
BC
330
1F
100
AcDbEntity
  8
0
  6
Continuous
 62
     7
370
    25
100
AcDbLine
 10
594.7958764351
 20
504.5186429419
 30
0.0
 11
594.7958764351
 21
488.5186431132
 31
0.0
  0
ARC
  5
BD
330
1F
100
AcDbEntity
  8
0
  6
Continuous
 62
     7
370
    25
100
AcDbCircle
 10
588.7958745278
 20
504.518643225
 30
0.0
 40
6.0
100
AcDbArc
 50
0.0
 51
90.0
  0
LINE
  5
BE
330
1F
100
AcDbEntity
  8
0
  6
Continuous
 62
     7
370
    25
100
AcDbLine
 10
346.7958730376
 20
510.5186439253
 30
0.0
 11
588.7958791769
 21
510.5186439253
 31
0.0
  0
ARC
  5
BF
330
1F
100
AcDbEntity
  8
0
  6
Continuous
 62
     7
370
    25
100
AcDbCircle
 10
346.7958745278
 20
504.518643225
 30
0.0
 40
6.0
100
AcDbArc
 50
90.0
 51
180.0
  0
LINE
  5
C0
330
1F
100
AcDbEntity
  8
0
  6
Continuous
 62
     7
370
    25
100
AcDbLine
 10
340.7958757795
 20
488.5186431132
 30
0.0
 11
340.7958757795
 21
504.5186429419
 31
0.0
  0
LINE
  5
C1
330
1F
100
AcDbEntity
  8
0
  6
Continuous
 62
     7
370
    25
100
AcDbLine
 10
632.0768234051
 20
488.5186431132
 30
0.0
 11
594.7958764351
 21
488.5186431132
 31
0.0
  0
LINE
  5
C2
330
1F
100
AcDbEntity
  8
0
  6
Continuous
 62
     7
370
    25
100
AcDbLine
 10
340.7958757795
 20
488.5186431132
 30
0.0
 11
303.5149362601
 21
488.5186431132
 31
0.0
  0
LINE
  5
C3
330
1F
100
AcDbEntity
  8
0
  6
Continuous
 62
     7
370
    25
100
AcDbLine
 10
588.7958791769
 20
508.5186435975
 30
0.0
 11
346.7958730376
 21
508.5186435975
 31
0.0
  0
LINE
  5
C4
330
1F
100
AcDbEntity
  8
0
  6
Continuous
 62
     7
370
    25
100
AcDbLine
 10
346.7958730376
 20
508.5186435975
 30
0.0
 11
346.7958730376
 21
510.5186439253
 31
0.0
  0
LINE
  5
C5
330
1F
100
AcDbEntity
  8
0
  6
Continuous
 62
     7
370
    25
100
AcDbLine
 10
588.7958791769
 20
508.5186435975
 30
0.0
 11
588.7958791769
 21
510.5186439253
 31
0.0
  0
ARC
  5
C6
330
1F
100
AcDbEntity
  8
0
  6
Continuous
 62
     7
370
    25
100
AcDbCircle
 10
346.7958745278
 20
504.518643225
 30
0.0
 40
4.0
100
AcDbArc
 50
90.0
 51
180.0
  0
LINE
  5
C7
330
1F
100
AcDbEntity
  8
0
  6
Continuous
 62
     7
370
    25
100
AcDbLine
 10
342.795872382
 20
504.5186429419
 30
0.0
 11
340.7958757795
 21
504.5186429419
 31
0.0
  0
LINE
  5
C8
330
1F
100
AcDbEntity
  8
0
  6
Continuous
 62
     7
370
    25
100
AcDbLine
 10
300.5804952896
 20
488.5186431132
 30
0.0
 11
300.5804952896
 21
611.5940789826
 31
0.0
  0
LINE
  5
C9
330
1F
100
AcDbEntity
  8
0
  6
Continuous
 62
     7
370
    25
100
AcDbLine
 10
303.5149362601
 20
611.5940789826
 30
0.0
 11
300.5804952896
 21
611.5940789826
 31
0.0
  0
LINE
  5
CA
330
1F
100
AcDbEntity
  8
0
  6
Continuous
 62
     7
370
    25
100
AcDbLine
 10
342.795872382
 20
504.5186429419
 30
0.0
 11
342.795872382
 21
488.5186431132
 31
0.0
  0
ELLIPSE
  5
CB
330
1F
100
AcDbEntity
  8
0
  6
Continuous
 62
     7
370
    25
100
AcDbEllipse
 10
316.8053602657
 20
608.891226227
 30
0.0
 11
-4.301491696177608
 21
20.23692734950874
 31
0.0
210
0.0
220
0.0
230
1.0
 40
0.7733566139
 41
6.13563473171672
 42
7.558880483048704
  0
LINE
  5
CC
330
1F
100
AcDbEntity
  8
0
  6
Continuous
 62
     7
370
    25
100
AcDbLine
 10
592.795872382
 20
488.5186431132
 30
0.0
 11
592.795872382
 21
504.5186429419
 31
0.0
  0
LINE
  5
CD
330
1F
100
AcDbEntity
  8
0
  6
Continuous
 62
     7
370
    25
100
AcDbLine
 10
592.795872382
 20
504.5186429419
 30
0.0
 11
594.7958764351
 21
504.5186429419
 31
0.0
  0
ARC
  5
CE
330
1F
100
AcDbEntity
  8
0
  6
Continuous
 62
     7
370
    25
100
AcDbCircle
 10
588.7958745278
 20
504.518643225
 30
0.0
 40
4.0
100
AcDbArc
 50
0.0
 51
90.0
  0
LINE
  5
CF
330
1F
100
AcDbEntity
  8
0
  6
Continuous
 62
     7
370
    25
100
AcDbLine
 10
632.0768234051
 20
611.5940789826
 30
0.0
 11
635.0112643755
 21
611.5940789826
 31
0.0
  0
LINE
  5
D0
330
1F
100
AcDbEntity
  8
0
  6
Continuous
 62
     7
370
    25
100
AcDbLine
 10
635.0112643755
 20
611.5940789826
 30
0.0
 11
635.0112643755
 21
488.5186431132
 31
0.0
  0
ELLIPSE
  5
D1
330
1F
100
AcDbEntity
  8
0
  6
Continuous
 62
     7
370
    25
100
AcDbEllipse
 10
618.7863887898
 20
608.891226227
 30
0.0
 11
4.301491696177663
 21
20.23692734950873
 31
0.0
210
0.0
220
0.0
230
1.0
 40
0.7733566139
 41
5.007490131310472
 42
6.430735882642464
  0
ELLIPSE
  5
D2
330
1F
100
AcDbEntity
  8
0
  6
Continuous
 62
     7
370
    25
100
AcDbEllipse
 10
310.4286634156
 20
638.891226227
 30
0.0
 11
-5.669053090011915
 21
26.67079785950204
 31
0.0
210
0.0
220
0.0
230
1.0
 40
0.5867976539
 41
6.135634731716726
 42
7.558880483048711
  0
LINE
  5
D3
330
1F
100
AcDbEntity
  8
0
  6
Continuous
 62
     7
370
    25
100
AcDbLine
 10
307.1220603502
 20
665.7612900384
 30
0.0
 11
314.8514565743
 21
629.3973158248
 31
0.0
  0
LINE
  5
D4
330
1F
100
AcDbEntity
  8
0
  6
Continuous
 62
     7
370
    25
100
AcDbLine
 10
300.5804952896
 20
611.5940789826
 30
0.0
 11
293.8060548819
 21
643.4652785905
 31
0.0
  0
ELLIPSE
  5
D5
330
1F
100
AcDbEntity
  8
0
  6
Continuous
 62
     7
370
    25
100
AcDbEllipse
 10
625.1630856399
 20
638.891226227
 30
0.0
 11
5.669053090011971
 21
26.67079785950204
 31
0.0
210
0.0
220
0.0
230
1.0
 40
0.5867976539
 41
5.007490131310472
 42
6.430735882642472
  0
LINE
  5
D6
330
1F
100
AcDbEntity
  8
0
  6
Continuous
 62
     7
370
    25
100
AcDbLine
 10
641.7856898821
 20
643.4652785905
 30
0.0
 11
635.0112643755
 21
611.5940789826
 31
0.0
  0
LINE
  5
D7
330
1F
100
AcDbEntity
  8
0
  6
Continuous
 62
     7
370
    25
100
AcDbLine
 10
620.7402881897
 20
629.3973158248
 30
0.0
 11
628.4696844137
 21
665.7612900384
 31
0.0
  0
LINE
  5
D8
330
1F
100
AcDbEntity
  8
0
  6
Continuous
 62
     7
370
    25
100
AcDbLine
 10
628.4696844137
 20
665.7612900384
 30
0.0
 11
307.1220603502
 21
665.7612900384
 31
0.0
  0
LINE
  5
D9
330
1F
100
AcDbEntity
  8
0
  6
Continuous
 62
     7
370
    25
100
AcDbLine
 10
293.8060548819
 20
643.4652785905
 30
0.0
 11
293.8060548819
 21
488.5186431132
 31
0.0
  0
LINE
  5
DA
330
1F
100
AcDbEntity
  8
0
  6
Continuous
 62
     7
370
    25
100
AcDbLine
 10
641.7856898821
 20
488.5186431132
 30
0.0
 11
641.7856898821
 21
643.4652785905
 31
0.0
  0
ARC
  5
DB
330
1F
100
AcDbEntity
  8
0
  6
Continuous
 62
     7
370
    25
100
AcDbCircle
 10
346.7958745278
 20
504.518643225
 30
0.0
 40
1.0
100
AcDbArc
 50
90.0
 51
180.0
  0
LINE
  5
DC
330
1F
100
AcDbEntity
  8
0
  6
Continuous
 62
     7
370
    25
100
AcDbLine
 10
345.7958710111
 20
504.5186429419
 30
0.0
 11
342.795872382
 21
504.5186429419
 31
0.0
  0
LINE
  5
DD
330
1F
100
AcDbEntity
  8
0
  6
Continuous
 62
     7
370
    25
100
AcDbLine
 10
346.7958730376
 20
505.5186431058
 30
0.0
 11
346.7958730376
 21
508.5186435975
 31
0.0
  0
LINE
  5
DE
330
1F
100
AcDbEntity
  8
0
  6
Continuous
 62
     7
370
    25
100
AcDbLine
 10
345.7958710111
 20
504.5186429419
 30
0.0
 11
345.7958710111
 21
488.5186431132
 31
0.0
  0
LINE
  5
DF
330
1F
100
AcDbEntity
  8
0
  6
Continuous
 62
     7
370
    25
100
AcDbLine
 10
588.7958791769
 20
505.5186431058
 30
0.0
 11
346.7958730376
 21
505.5186431058
 31
0.0
  0
LINE
  5
E0
330
1F
100
AcDbEntity
  8
0
  6
Continuous
 62
     7
370
    25
100
AcDbLine
 10
588.7958791769
 20
505.5186431058
 30
0.0
 11
588.7958791769
 21
508.5186435975
 31
0.0
  0
ARC
  5
E1
330
1F
100
AcDbEntity
  8
0
  6
Continuous
 62
     7
370
    25
100
AcDbCircle
 10
588.7958745278
 20
504.518643225
 30
0.0
 40
1.0
100
AcDbArc
 50
0.0
 51
90.0
  0
LINE
  5
E2
330
1F
100
AcDbEntity
  8
0
  6
Continuous
 62
     7
370
    25
100
AcDbLine
 10
589.7958812035
 20
504.5186429419
 30
0.0
 11
592.795872382
 21
504.5186429419
 31
0.0
  0
LINE
  5
E3
330
1F
100
AcDbEntity
  8
0
  6
Continuous
 62
     7
370
    25
100
AcDbLine
 10
589.7958812035
 20
488.5186431132
 30
0.0
 11
589.7958812035
 21
504.5186429419
 31
0.0
  0
LINE
  5
E4
330
1F
100
AcDbEntity
  8
0
  6
Continuous
 62
     7
370
    25
100
AcDbLine
 10
287.937172941
 20
488.5186431132
 30
0.0
 11
287.937172941
 21
643.4652785905
 31
0.0
  0
LINE
  5
E5
330
1F
100
AcDbEntity
  8
0
  6
Continuous
 62
     7
370
    25
100
AcDbLine
 10
293.8060548819
 20
643.4652785905
 30
0.0
 11
287.937172941
 21
643.4652785905
 31
0.0
  0
ELLIPSE
  5
E6
330
1F
100
AcDbEntity
  8
0
  6
Continuous
 62
     7
370
    25
100
AcDbEllipse
 10
310.4286634156
 20
638.891226227
 30
0.0
 11
-6.541350054418275
 21
30.77463242265481
 31
0.0
210
0.0
220
0.0
230
1.0
 40
0.6992527781
 41
6.135634731716721
 42
7.558880483048711
  0
LINE
  5
E7
330
1F
100
AcDbEntity
  8
0
  6
Continuous
 62
     7
370
    25
100
AcDbLine
 10
307.1220603502
 20
665.7612900384
 30
0.0
 11
307.1220603502
 21
670.0039188512
 31
0.0
  0
LINE
  5
E8
330
1F
100
AcDbEntity
  8
0
  6
Continuous
 62
     7
370
    25
100
AcDbLine
 10
641.7856898821
 20
643.4652785905
 30
0.0
 11
647.6545718229
 21
643.4652785905
 31
0.0
  0
LINE
  5
E9
330
1F
100
AcDbEntity
  8
0
  6
Continuous
 62
     7
370
    25
100
AcDbLine
 10
647.6545718229
 20
643.4652785905
 30
0.0
 11
647.6545718229
 21
488.5186431132
 31
0.0
  0
LINE
  5
EA
330
1F
100
AcDbEntity
  8
0
  6
Continuous
 62
     7
370
    25
100
AcDbLine
 10
628.4696844137
 20
665.7612900384
 30
0.0
 11
628.4696844137
 21
670.0039188512
 31
0.0
  0
ELLIPSE
  5
EB
330
1F
100
AcDbEntity
  8
0
  6
Continuous
 62
     7
370
    25
100
AcDbEllipse
 10
625.1630856399
 20
638.891226227
 30
0.0
 11
6.541350054418217
 21
30.7746324226548
 31
0.0
210
0.0
220
0.0
230
1.0
 40
0.6992527781
 41
5.007490131310471
 42
6.430735882642468
  0
LINE
  5
EC
330
1F
100
AcDbEntity
  8
0
  6
Continuous
 62
     7
370
    25
100
AcDbLine
 10
307.1220603502
 20
670.0039188512
 30
0.0
 11
628.4696844137
 21
670.0039188512
 31
0.0
  0
LINE
  5
ED
330
1F
100
AcDbEntity
  8
0
  6
Continuous
 62
     7
370
    25
100
AcDbLine
 10
666.7958733357
 20
488.5186431132
 30
0.0
 11
666.7958733357
 21
743.5186336882
 31
0.0
  0
LINE
  5
EE
330
1F
100
AcDbEntity
  8
0
  6
Continuous
 62
     7
370
    25
100
AcDbLine
 10
268.7958714283
 20
488.5186431132
 30
0.0
 11
268.7958714283
 21
743.5186336882
 31
0.0
  0
LINE
  5
EF
330
1F
100
AcDbEntity
  8
0
  6
Continuous
 62
     7
370
    25
100
AcDbLine
 10
268.7958714283
 20
743.5186336882
 30
0.0
 11
666.7958733357
 21
743.5186336882
 31
0.0
  0
LINE
  5
F0
330
1F
100
AcDbEntity
  8
0
  6
Continuous
 62
     7
370
    25
100
AcDbLine
 10
268.1958761728
 20
560.5186428077
 30
0.0
 11
268.7958714283
 21
560.5186428077
 31
0.0
  0
LINE
  5
F1
330
1F
100
AcDbEntity
  8
0
  6
Continuous
 62
     7
370
    25
100
AcDbLine
 10
268.1958761728
 20
632.5186471589
 30
0.0
 11
268.7958714283
 21
632.5186471589
 31
0.0
  0
LINE
  5
F2
330
1F
100
AcDbEntity
  8
0
  6
Continuous
 62
     7
370
    25
100
AcDbLine
 10
268.1958761728
 20
560.5186428077
 30
0.0
 11
268.1958761728
 21
632.5186471589
 31
0.0
  0
LINE
  5
F3
330
1F
100
AcDbEntity
  8
0
  6
Continuous
 62
     7
370
    25
100
AcDbLine
 10
268.1958761728
 20
558.5186462052
 30
0.0
 11
268.7958714283
 21
558.5186462052
 31
0.0
  0
LINE
  5
F4
330
1F
100
AcDbEntity
  8
0
  6
Continuous
 62
     7
370
    25
100
AcDbLine
 10
268.1958761728
 20
558.5186462052
 30
0.0
 11
268.1958761728
 21
560.5186428077
 31
0.0
  0
LINE
  5
F5
330
1F
100
AcDbEntity
  8
0
  6
Continuous
 62
     7
370
    25
100
AcDbLine
 10
268.1958761728
 20
634.5186363108
 30
0.0
 11
268.7958714283
 21
634.5186363108
 31
0.0
  0
LINE
  5
F6
330
1F
100
AcDbEntity
  8
0
  6
Continuous
 62
     7
370
    25
100
AcDbLine
 10
268.1958761728
 20
632.5186471589
 30
0.0
 11
268.1958761728
 21
634.5186363108
 31
0.0
  0
LINE
  5
F7
330
1F
100
AcDbEntity
  8
0
  6
Continuous
 62
     7
370
    25
100
AcDbLine
 10
218.7958744086
 20
488.5186431132
 30
0.0
 11
218.7958744086
 21
483.518643225
 31
0.0
  0
LINE
  5
F8
330
1F
100
AcDbEntity
  8
0
  6
Continuous
 62
     7
370
    25
100
AcDbLine
 10
214.7958812035
 20
483.518643225
 30
0.0
 11
214.7958812035
 21
488.5186431132
 31
0.0
  0
LINE
  5
F9
330
1F
100
AcDbEntity
  8
0
  6
Continuous
 62
     7
370
    25
100
AcDbLine
 10
218.7958744086
 20
483.518643225
 30
0.0
 11
214.7958812035
 21
483.518643225
 31
0.0
  0
LINE
  5
FA
330
1F
100
AcDbEntity
  8
0
  6
Continuous
 62
     7
370
    25
100
AcDbLine
 10
214.7958812035
 20
488.5186431132
 30
0.0
 11
218.7958744086
 21
488.5186431132
 31
0.0
  0
LINE
  5
FB
330
1F
100
AcDbEntity
  8
0
  6
Continuous
 62
     7
370
    25
100
AcDbLine
 10
674.795874647
 20
483.518643225
 30
0.0
 11
674.795874647
 21
488.5186431132
 31
0.0
  0
LINE
  5
FC
330
1F
100
AcDbEntity
  8
0
  6
Continuous
 62
     7
370
    25
100
AcDbLine
 10
218.7958744086
 20
483.518643225
 30
0.0
 11
674.795874647
 21
483.518643225
 31
0.0
  0
LINE
  5
FD
330
1F
100
AcDbEntity
  8
0
  6
Continuous
 62
     7
370
    25
100
AcDbLine
 10
218.7958744086
 20
488.5186431132
 30
0.0
 11
674.795874647
 21
488.5186431132
 31
0.0
  0
LINE
  5
FE
330
1F
100
AcDbEntity
  8
0
  6
Continuous
 62
     7
370
    25
100
AcDbLine
 10
678.795867852
 20
488.5186431132
 30
0.0
 11
678.795867852
 21
483.518643225
 31
0.0
  0
LINE
  5
FF
330
1F
100
AcDbEntity
  8
0
  6
Continuous
 62
     7
370
    25
100
AcDbLine
 10
678.795867852
 20
483.518643225
 30
0.0
 11
674.795874647
 21
483.518643225
 31
0.0
  0
LINE
  5
100
330
1F
100
AcDbEntity
  8
0
  6
Continuous
 62
     7
370
    25
100
AcDbLine
 10
674.795874647
 20
488.5186431132
 30
0.0
 11
678.795867852
 21
488.5186431132
 31
0.0
  0
LINE
  5
101
330
1F
100
AcDbEntity
  8
0
  6
Continuous
 62
     7
370
    25
100
AcDbLine
 10
678.795867852
 20
509.5186437614
 30
0.0
 11
673.7958726204
 21
509.5186437614
 31
0.0
  0
LINE
  5
102
330
1F
100
AcDbEntity
  8
0
  6
Continuous
 62
     7
370
    25
100
AcDbLine
 10
673.7958726204
 20
514.5186427183
 30
0.0
 11
678.795867852
 21
514.5186427183
 31
0.0
  0
LINE
  5
103
330
1F
100
AcDbEntity
  8
0
  6
Continuous
 62
     7
370
    25
100
AcDbLine
 10
673.7958726204
 20
509.5186437614
 30
0.0
 11
673.7958726204
 21
514.5186427183
 31
0.0
  0
LINE
  5
104
330
1F
100
AcDbEntity
  8
0
  6
Continuous
 62
     7
370
    25
100
AcDbLine
 10
678.795867852
 20
514.5186427183
 30
0.0
 11
678.795867852
 21
509.5186437614
 31
0.0
  0
LINE
  5
105
330
1F
100
AcDbEntity
  8
0
  6
Continuous
 62
     7
370
    25
100
AcDbLine
 10
673.7958726204
 20
493.5186430015
 30
0.0
 11
678.795867852
 21
493.5186430015
 31
0.0
  0
LINE
  5
106
330
1F
100
AcDbEntity
  8
0
  6
Continuous
 62
     7
370
    25
100
AcDbLine
 10
673.7958726204
 20
509.5186437614
 30
0.0
 11
673.7958726204
 21
493.5186430015
 31
0.0
  0
LINE
  5
107
330
1F
100
AcDbEntity
  8
0
  6
Continuous
 62
     7
370
    25
100
AcDbLine
 10
678.795867852
 20
509.5186437614
 30
0.0
 11
678.795867852
 21
493.5186430015
 31
0.0
  0
ARC
  5
108
330
1F
100
AcDbEntity
  8
0
  6
Continuous
 62
     7
370
    25
100
AcDbCircle
 10
668.7958745278
 20
493.518643225
 30
0.0
 40
10.00000000000006
100
AcDbArc
 50
330.0
 51
0.0
  0
ARC
  5
109
330
1F
100
AcDbEntity
  8
0
  6
Continuous
 62
     7
370
    25
100
AcDbCircle
 10
668.7958745278
 20
493.518643225
 30
0.0
 40
5.0
100
AcDbArc
 50
270.0
 51
0.0
  0
LINE
  5
10A
330
1F
100
AcDbEntity
  8
0
  6
Continuous
 62
     7
370
    25
100
AcDbLine
 10
845.0464234357
 20
709.1186474211
 30
0.0
 11
845.0464234357
 21
708.5186372645
 31
0.0
  0
LINE
  5
10B
330
1F
100
AcDbEntity
  8
0
  6
Continuous
 62
     7
370
    25
100
AcDbLine
 10
863.0464226608
 20
708.5186372645
 30
0.0
 11
863.0464226608
 21
709.1186474211
 31
0.0
  0
LINE
  5
10C
330
1F
100
AcDbEntity
  8
0
  6
Continuous
 62
     7
370
    25
100
AcDbLine
 10
842.0464229439
 20
706.0186396487
 30
0.0
 11
842.0464229439
 21
703.5186420329
 31
0.0
  0
LINE
  5
10D
330
1F
100
AcDbEntity
  8
0
  6
Continuous
 62
     7
370
    25
100
AcDbLine
 10
866.0464231525
 20
703.5186420329
 30
0.0
 11
866.0464231525
 21
706.0186396487
 31
0.0
  0
LINE
  5
10E
330
1F
100
AcDbEntity
  8
0
  6
Continuous
 62
     7
370
    25
100
AcDbLine
 10
842.0464229439
 20
708.5186372645
 30
0.0
 11
842.0464229439
 21
706.0186396487
 31
0.0
  0
LINE
  5
10F
330
1F
100
AcDbEntity
  8
0
  6
Continuous
 62
     7
370
    25
100
AcDbLine
 10
866.0464231525
 20
706.0186396487
 30
0.0
 11
866.0464231525
 21
708.5186372645
 31
0.0
  0
LINE
  5
110
330
1F
100
AcDbEntity
  8
0
  6
Continuous
 62
     7
370
    25
100
AcDbLine
 10
885.5464235549
 20
495.8051563375
 30
0.0
 11
885.5464235549
 21
497.7308762394
 31
0.0
  0
LINE
  5
111
330
1F
100
AcDbEntity
  8
0
  6
Continuous
 62
     7
370
    25
100
AcDbLine
 10
885.5464235549
 20
491.9186429255
 30
0.0
 11
885.5464235549
 21
493.8186434232
 31
0.0
  0
LINE
  5
112
330
1F
100
AcDbEntity
  8
0
  6
Continuous
 62
     7
370
    25
100
AcDbLine
 10
878.5464224075
 20
493.8186434232
 30
0.0
 11
878.5464224075
 21
491.9186429255
 31
0.0
  0
LINE
  5
113
330
1F
100
AcDbEntity
  8
0
  6
Continuous
 62
     7
370
    25
100
AcDbLine
 10
878.5464224075
 20
497.7308762394
 30
0.0
 11
878.5464224075
 21
495.8051563375
 31
0.0
  0
ELLIPSE
  5
114
330
1F
100
AcDbEntity
  8
0
  6
Continuous
 62
     7
370
    25
100
AcDbEllipse
 10
882.0464230482
 20
496.918643225
 30
0.0
 11
-6.0
 21
0.0
 31
0.0
210
0.0
220
0.0
230
1.0
 40
0.1666666667
 41
4.951220931501805
 42
5.335215565796703
  0
ELLIPSE
  5
115
330
1F
100
AcDbEntity
  8
0
  6
Continuous
 62
     7
370
    25
100
AcDbEllipse
 10
882.0464230482
 20
496.918643225
 30
0.0
 11
6.0
 21
0.0
 31
0.0
210
0.0
220
0.0
230
1.0
 40
0.1666666667
 41
0.9479697413829129
 42
1.33216449792158
  0
LINE
  5
116
330
1F
100
AcDbEntity
  8
0
  6
Continuous
 62
     7
370
    25
100
AcDbLine
 10
829.546423689
 20
495.8051563375
 30
0.0
 11
829.546423689
 21
497.7308762394
 31
0.0
  0
LINE
  5
117
330
1F
100
AcDbEntity
  8
0
  6
Continuous
 62
     7
370
    25
100
AcDbLine
 10
829.546423689
 20
491.9186429255
 30
0.0
 11
829.546423689
 21
493.8186434232
 31
0.0
  0
LINE
  5
118
330
1F
100
AcDbEntity
  8
0
  6
Continuous
 62
     7
370
    25
100
AcDbLine
 10
822.5464225416
 20
493.8186434232
 30
0.0
 11
822.5464225416
 21
491.9186429255
 31
0.0
  0
LINE
  5
119
330
1F
100
AcDbEntity
  8
0
  6
Continuous
 62
     7
370
    25
100
AcDbLine
 10
822.5464225416
 20
497.7308762394
 30
0.0
 11
822.5464225416
 21
495.8051563375
 31
0.0
  0
ELLIPSE
  5
11A
330
1F
100
AcDbEntity
  8
0
  6
Continuous
 62
     7
370
    25
100
AcDbEllipse
 10
826.0464230482
 20
496.918643225
 30
0.0
 11
-6.0
 21
0.0
 31
0.0
210
0.0
220
0.0
230
1.0
 40
0.1666666667
 41
4.951220931501805
 42
5.335215565796703
  0
ELLIPSE
  5
11B
330
1F
100
AcDbEntity
  8
0
  6
Continuous
 62
     7
370
    25
100
AcDbEllipse
 10
826.0464230482
 20
496.918643225
 30
0.0
 11
6.0
 21
0.0
 31
0.0
210
0.0
220
0.0
230
1.0
 40
0.1666666667
 41
0.9479697413829129
 42
1.33216449792158
  0
LINE
  5
11C
330
1F
100
AcDbEntity
  8
0
  6
Continuous
 62
     7
370
    25
100
AcDbLine
 10
806.046422631
 20
534.5186422713
 30
0.0
 11
804.6464212839
 21
534.5186422713
 31
0.0
  0
LINE
  5
11D
330
1F
100
AcDbEntity
  8
0
  6
Continuous
 62
     7
370
    25
100
AcDbLine
 10
804.6464212839
 20
532.2186443157
 30
0.0
 11
799.94642368
 21
532.2186443157
 31
0.0
  0
LINE
  5
11E
330
1F
100
AcDbEntity
  8
0
  6
Continuous
 62
     7
370
    25
100
AcDbLine
 10
799.94642368
 20
506.8186427601
 30
0.0
 11
804.6464212839
 21
506.8186427601
 31
0.0
  0
LINE
  5
11F
330
1F
100
AcDbEntity
  8
0
  6
Continuous
 62
     7
370
    25
100
AcDbLine
 10
903.4464248125
 20
534.5186422713
 30
0.0
 11
902.0464234655
 21
534.5186422713
 31
0.0
  0
LINE
  5
120
330
1F
100
AcDbEntity
  8
0
  6
Continuous
 62
     7
370
    25
100
AcDbLine
 10
903.4464248125
 20
506.8186427601
 30
0.0
 11
908.1464224164
 21
506.8186427601
 31
0.0
  0
LINE
  5
121
330
1F
100
AcDbEntity
  8
0
  6
Continuous
 62
     7
370
    25
100
AcDbLine
 10
908.1464224164
 20
532.2186443157
 30
0.0
 11
903.4464248125
 21
532.2186443157
 31
0.0
  0
LINE
  5
122
330
1F
100
AcDbEntity
  8
0
  6
Continuous
 62
     7
370
    25
100
AcDbLine
 10
849.546423242
 20
709.1186474211
 30
0.0
 11
845.0464234357
 21
709.1186474211
 31
0.0
  0
LINE
  5
123
330
1F
100
AcDbEntity
  8
0
  6
Continuous
 62
     7
370
    25
100
AcDbLine
 10
845.0464234357
 20
709.1186474211
 30
0.0
 11
845.0464234357
 21
715.2148018725
 31
0.0
  0
SPLINE
  5
124
330
1F
100
AcDbEntity
  8
0
  6
Continuous
 62
     7
370
    25
100
AcDbSpline
210
0.0
220
0.0
230
1.0
 70
     8
 71
     3
 72
    11
 73
     7
 74
     0
 42
0.000000001
 43
0.00000001
 40
0.0
 40
0.0
 40
0.0
 40
0.0
 40
0.2477103153935335
 40
0.4953651392352796
 40
0.7477051795846981
 40
1.0
 40
1.0
 40
1.0
 40
1.0
 10
845.0464234356656
 20
715.2148018725177
 30
0.0
 10
845.4103178224678
 20
715.3298748043774
 30
0.0
 10
846.1380250772056
 20
715.5599948896967
 30
0.0
 10
847.2560484136218
 20
715.8130522440767
 30
0.0
 10
848.3935439425467
 20
715.9850954321585
 30
0.0
 10
849.1621531003038
 20
716.0074624875642
 30
0.0
 10
849.5464232419505
 20
716.0186450131198
 30
0.0
  0
SPLINE
  5
125
330
1F
100
AcDbEntity
  8
0
  6
Continuous
 62
     7
370
    25
100
AcDbSpline
210
0.0
220
0.0
230
1.0
 70
     8
 71
     3
 72
    12
 73
     8
 74
     0
 42
0.000000001
 43
0.00000001
 40
0.0
 40
0.0
 40
0.0
 40
0.0
 40
0.070054972905915
 40
0.3004250788404532
 40
0.5308299174963818
 40
0.7653925629309009
 40
1.0
 40
1.0
 40
1.0
 40
1.0
 10
849.5464232419505
 20
716.0186450131198
 30
0.0
 10
849.653098627065
 20
716.01773873355
 30
0.0
 10
850.110567378446
 20
716.0138522269976
 30
0.0
 10
850.9181721770179
 20
715.952975378743
 30
0.0
 10
851.9678095283277
 20
715.7869374255711
 30
0.0
 10
853.0127466833972
 20
715.5422790153642
 30
0.0
 10
853.7018423306519
 20
715.3239678675167
 30
0.0
 10
854.0464230482354
 20
715.2148018725177
 30
0.0
  0
LINE
  5
126
330
1F
100
AcDbEntity
  8
0
  6
Continuous
 62
     7
370
    25
100
AcDbLine
 10
854.0464230482
 20
709.1186474211
 30
0.0
 11
854.0464230482
 21
715.2148018725
 31
0.0
  0
LINE
  5
127
330
1F
100
AcDbEntity
  8
0
  6
Continuous
 62
     7
370
    25
100
AcDbLine
 10
854.0464230482
 20
709.1186474211
 30
0.0
 11
849.546423242
 21
709.1186474211
 31
0.0
  0
SPLINE
  5
128
330
1F
100
AcDbEntity
  8
0
  6
Continuous
 62
     7
370
    25
100
AcDbSpline
210
0.0
220
0.0
230
1.0
 70
     8
 71
     3
 72
    12
 73
     8
 74
     0
 42
0.000000001
 43
0.00000001
 40
0.0
 40
0.0
 40
0.0
 40
0.0
 40
0.1959924881296197
 40
0.3956257447630664
 40
0.5952317908464222
 40
0.7976245509469762
 40
1.0
 40
1.0
 40
1.0
 40
1.0
 10
854.0464230482354
 20
715.2148018725177
 30
0.0
 10
854.3341029826636
 20
715.3067227494122
 30
0.0
 10
854.9148068116605
 20
715.492272031059
 30
0.0
 10
855.8010182347617
 20
715.7149715403895
 30
0.0
 10
856.7054148069027
 20
715.8859557499114
 30
0.0
 10
857.6217244751107
 20
715.9970909400711
 30
0.0
 10
858.2381988498022
 20
716.0114605269554
 30
0.0
 10
858.5464228545203
 20
716.0186450131198
 30
0.0
  0
LINE
  5
129
330
1F
100
AcDbEntity
  8
0
  6
Continuous
 62
     7
370
    25
100
AcDbLine
 10
858.5464228545
 20
716.0186450131
 30
0.0
 11
849.546423242
 21
716.0186450131
 31
0.0
  0
SPLINE
  5
12A
330
1F
100
AcDbEntity
  8
0
  6
Continuous
 62
     7
370
    25
100
AcDbSpline
210
0.0
220
0.0
230
1.0
 70
     8
 71
     3
 72
    12
 73
     8
 74
     0
 42
0.000000001
 43
0.00000001
 40
0.0
 40
0.0
 40
0.0
 40
0.0
 40
0.2200723500170037
 40
0.4139135773537575
 40
0.6077753980445431
 40
0.8038778749032113
 40
1.0
 40
1.0
 40
1.0
 40
1.0
 10
858.5464228545203
 20
716.0186450131198
 30
0.0
 10
858.8816191358321
 20
716.0103494257875
 30
0.0
 10
859.5120585885973
 20
715.9947470285359
 30
0.0
 10
860.4329844131521
 20
715.8778053012027
 30
0.0
 10
861.3103611792712
 20
715.7105702846036
 30
0.0
 10
862.1828346258735
 20
715.4907089471559
 30
0.0
 10
862.7585503691253
 20
715.3067739687652
 30
0.0
 10
863.0464226608052
 20
715.2148018725177
 30
0.0
  0
LINE
  5
12B
330
1F
100
AcDbEntity
  8
0
  6
Continuous
 62
     7
370
    25
100
AcDbLine
 10
863.0464226608
 20
709.1186474211
 30
0.0
 11
863.0464226608
 21
715.2148018725
 31
0.0
  0
LINE
  5
12C
330
1F
100
AcDbEntity
  8
0
  6
Continuous
 62
     7
370
    25
100
AcDbLine
 10
863.0464226608
 20
709.1186474211
 30
0.0
 11
858.5464228545
 21
709.1186474211
 31
0.0
  0
LINE
  5
12D
330
1F
100
AcDbEntity
  8
0
  6
Continuous
 62
     7
370
    25
100
AcDbLine
 10
858.5464228545
 20
709.1186474211
 30
0.0
 11
854.0464230482
 21
709.1186474211
 31
0.0
  0
SPLINE
  5
12E
330
1F
100
AcDbEntity
  8
0
  6
Continuous
 62
     7
370
    25
100
AcDbSpline
210
0.0
220
0.0
230
1.0
 70
    24
 71
     3
 72
    12
 73
     8
 74
     0
 42
0.000000001
 43
0.00000001
 40
0.0
 40
0.0
 40
0.0
 40
0.0
 40
0.070054943487027
 40
0.3004255846383956
 40
0.5308296073719082
 40
0.7653923897206821
 40
1.0
 40
1.0
 40
1.0
 40
1.0
 10
845.0464234356656
 20
716.0186450131198
 30
0.0
 10
845.0464234356657
 20
716.0177387258914
 30
0.0
 10
845.0464234356657
 20
716.0138521783201
 30
0.0
 10
845.0464234356656
 20
715.9529759150162
 30
0.0
 10
845.0464234356656
 20
715.7869368674942
 30
0.0
 10
845.0464234356656
 20
715.542279046338
 30
0.0
 10
845.0464234356656
 20
715.3239678834666
 30
0.0
 10
845.0464234356656
 20
715.2148018725177
 30
0.0
  0
LINE
  5
12F
330
1F
100
AcDbEntity
  8
0
  6
Continuous
 62
     7
370
    25
100
AcDbLine
 10
849.546423242
 20
716.0186450131
 30
0.0
 11
845.0464234357
 21
716.0186450131
 31
0.0
  0
SPLINE
  5
130
330
1F
100
AcDbEntity
  8
0
  6
Continuous
 62
     7
370
    25
100
AcDbSpline
210
0.0
220
0.0
230
1.0
 70
    24
 71
     3
 72
    11
 73
     7
 74
     0
 42
0.000000001
 43
0.00000001
 40
0.0
 40
0.0
 40
0.0
 40
0.0
 40
0.2477107152317909
 40
0.495365407855924
 40
0.7477051672995744
 40
1.0
 40
1.0
 40
1.0
 40
1.0
 10
863.0464226608052
 20
715.2148018725177
 30
0.0
 10
863.0464226608052
 20
715.3298747599786
 30
0.0
 10
863.0464226608052
 20
715.5599945098523
 30
0.0
 10
863.0464226608053
 20
715.8130522226577
 30
0.0
 10
863.0464226608052
 20
715.9850954992653
 30
0.0
 10
863.0464226608052
 20
716.0074625056002
 30
0.0
 10
863.0464226608052
 20
716.0186450131198
 30
0.0
  0
LINE
  5
131
330
1F
100
AcDbEntity
  8
0
  6
Continuous
 62
     7
370
    25
100
AcDbLine
 10
858.5464228545
 20
716.0186450131
 30
0.0
 11
863.0464226608
 21
716.0186450131
 31
0.0
  0
LINE
  5
132
330
1F
100
AcDbEntity
  8
0
  6
Continuous
 62
     7
370
    25
100
AcDbLine
 10
854.0464230482
 20
706.0186396487
 30
0.0
 11
866.0464231525
 21
706.0186396487
 31
0.0
  0
LINE
  5
133
330
1F
100
AcDbEntity
  8
0
  6
Continuous
 62
     7
370
    25
100
AcDbLine
 10
842.0464229439
 20
706.0186396487
 30
0.0
 11
854.0464230482
 21
706.0186396487
 31
0.0
  0
LINE
  5
134
330
1F
100
AcDbEntity
  8
0
  6
Continuous
 62
     7
370
    25
100
AcDbLine
 10
854.0464230482
 20
708.5186372645
 30
0.0
 11
866.0464231525
 21
708.5186372645
 31
0.0
  0
LINE
  5
135
330
1F
100
AcDbEntity
  8
0
  6
Continuous
 62
     7
370
    25
100
AcDbLine
 10
842.0464229439
 20
708.5186372645
 30
0.0
 11
854.0464230482
 21
708.5186372645
 31
0.0
  0
LINE
  5
136
330
1F
100
AcDbEntity
  8
0
  6
Continuous
 62
     7
370
    25
100
AcDbLine
 10
885.1252385084
 20
496.7186431535
 30
0.0
 11
885.1252385084
 21
497.7308762394
 31
0.0
  0
LINE
  5
137
330
1F
100
AcDbEntity
  8
0
  6
Continuous
 62
     7
370
    25
100
AcDbLine
 10
885.1252385084
 20
497.7308762394
 30
0.0
 11
885.5464235549
 21
497.7308762394
 31
0.0
  0
LINE
  5
138
330
1F
100
AcDbEntity
  8
0
  6
Continuous
 62
     7
370
    25
100
AcDbLine
 10
878.5464224075
 20
497.7308762394
 30
0.0
 11
883.7110251789
 21
497.7308762394
 31
0.0
  0
LINE
  5
139
330
1F
100
AcDbEntity
  8
0
  6
Continuous
 62
     7
370
    25
100
AcDbLine
 10
883.7110251789
 20
497.7308762394
 30
0.0
 11
883.7110251789
 21
496.7186431535
 31
0.0
  0
LINE
  5
13A
330
1F
100
AcDbEntity
  8
0
  6
Continuous
 62
     7
370
    25
100
AcDbLine
 10
883.7110251789
 20
496.7186431535
 30
0.0
 11
885.1252385084
 21
496.7186431535
 31
0.0
  0
SPLINE
  5
13B
330
1F
100
AcDbEntity
  8
0
  6
Continuous
 62
     7
370
    25
100
AcDbSpline
210
0.0
220
0.0
230
1.0
 70
    11
 71
     3
 72
    26
 73
    22
 74
     0
 42
0.000000001
 43
0.00000001
 40
0.0
 40
0.0
 40
0.0
 40
0.0
 40
0.0521820769690611
 40
0.1043116820070728
 40
0.1577981948622994
 40
0.2122588287471819
 40
0.265286909874772
 40
0.3167942076002742
 40
0.3688804561475104
 40
0.422792181295719
 40
0.4771113366700293
 40
0.5295756160232752
 40
0.5808569109835824
 40
0.6334200684129053
 40
0.6877459494759786
 40
0.7416318359063807
 40
0.7936315197250158
 40
0.8451828727240933
 40
0.8982776068815244
 40
0.9527410416979811
 40
1.0
 40
1.0
 40
1.0
 40
1.0
 10
881.04642374859
 20
494.8186435870787
 30
0.0
 10
881.0570152288078
 20
494.708782109246
 30
0.0
 10
881.078187538931
 20
494.4891696253023
 30
0.0
 10
881.2426876666372
 20
494.1951733580797
 30
0.0
 10
881.4885262111094
 20
493.9654683250953
 30
0.0
 10
881.8027138827855
 20
493.8288603826655
 30
0.0
 10
882.141724419219
 20
493.8047375530258
 30
0.0
 10
882.4640145705041
 20
493.8904782166937
 30
0.0
 10
882.74137614222
 20
494.0742263726979
 30
0.0
 10
882.9477856214941
 20
494.3425717939235
 30
0.0
 10
883.0543875686488
 20
494.6678675223856
 30
0.0
 10
883.0471197296129
 20
495.0057704058547
 30
0.0
 10
882.9334951164054
 20
495.3175806438499
 30
0.0
 10
882.7252494191191
 20
495.578228471905
 30
0.0
 10
882.4375888220425
 20
495.7600933699757
 30
0.0
 10
882.1040138885521
 20
495.8358953423756
 30
0.0
 10
881.7700032474346
 20
495.7982730244844
 30
0.0
 10
881.4690456476221
 20
495.6572692406045
 30
0.0
 10
881.2286554526737
 20
495.4248708860883
 30
0.0
 10
881.0739120310881
 20
495.1319782108465
 30
0.0
 10
881.0551434144005
 20
494.9180376909584
 30
0.0
 10
881.04642374859
 20
494.8186435870787
 30
0.0
  0
ARC
  5
13C
330
1F
100
AcDbEntity
  8
0
  6
Continuous
 62
     7
370
    25
100
AcDbCircle
 10
888.9691225779
 20
494.8185018488
 30
0.0
 40
3.565751740285203
100
AcDbArc
 50
163.9364676519
 51
196.2844416145
  0
SPLINE
  5
13D
330
1F
100
AcDbEntity
  8
0
  6
Continuous
 62
     7
370
    25
100
AcDbSpline
210
0.0
220
0.0
230
1.0
 70
     8
 71
     3
 72
    17
 73
    13
 74
     0
 42
0.000000001
 43
0.00000001
 40
0.0
 40
0.0
 40
0.0
 40
0.0
 40
0.1044657514487992
 40
0.2088333683244007
 40
0.3156794648822186
 40
0.4246338735500109
 40
0.53076556822661
 40
0.6334869518315764
 40
0.7375426822857781
 40
0.845509035005206
 40
0.9540353292126552
 40
1.0
 40
1.0
 40
1.0
 40
1.0
 10
878.5464224074855
 20
493.818643423166
 30
0.0
 10
878.5495294690868
 20
493.8292520497347
 30
0.0
 10
878.5557406735321
 20
493.8504593371847
 30
0.0
 10
878.5993776554823
 20
494.0152576921158
 30
0.0
 10
878.6501663482954
 20
494.2612428512064
 30
0.0
 10
878.6891112945143
 20
494.5752839781756
 30
0.0
 10
878.6964979865892
 20
494.9142700449446
 30
0.0
 10
878.6709205439606
 20
495.2357439294464
 30
0.0
 10
878.6236866241786
 20
495.514198754011
 30
0.0
 10
878.5756401902362
 20
495.7156161680198
 30
0.0
 10
878.5464313384628
 20
495.818655234845
 30
0.0
 10
878.5493759231781
 20
495.8082516476656
 30
0.0
 10
878.5502520059123
 20
495.8051563374659
 30
0.0
  0
SPLINE
  5
13E
330
1F
100
AcDbEntity
  8
0
  6
Continuous
 62
     7
370
    25
100
AcDbSpline
210
0.0
220
0.0
230
1.0
 70
     8
 71
     3
 72
    12
 73
     8
 74
     0
 42
0.000000001
 43
0.00000001
 40
0.0
 40
0.0
 40
0.0
 40
0.0
 40
0.0684722723051066
 40
0.3286911517715443
 40
0.5893260748795168
 40
0.8495128372248805
 40
1.0
 40
1.0
 40
1.0
 40
1.0
 10
883.7110251788869
 20
497.7308762393853
 30
0.0
 10
883.6410728204742
 20
497.7417536039848
 30
0.0
 10
883.3052767313164
 20
497.7939688055264
 30
0.0
 10
882.7009924059776
 20
497.8580965826531
 30
0.0
 10
881.8988091137142
 20
497.9003769750466
 30
0.0
 10
881.2086013750245
 20
497.9131235783373
 30
0.0
 10
880.7867887272988
 20
497.8904800969661
 30
0.0
 10
880.6322198961749
 20
497.8821826301476
 30
0.0
  0
SPLINE
  5
13F
330
1F
100
AcDbEntity
  8
0
  6
Continuous
 62
     7
370
    25
100
AcDbSpline
210
0.0
220
0.0
230
1.0
 70
     8
 71
     3
 72
    11
 73
     7
 74
     0
 42
0.000000001
 43
0.00000001
 40
0.0
 40
0.0
 40
0.0
 40
0.0
 40
0.1893084327384187
 40
0.6549892293115591
 40
0.9707595140213403
 40
1.0
 40
1.0
 40
1.0
 40
1.0
 10
882.0985183720364
 20
497.8846226952931
 30
0.0
 10
882.2897107281456
 20
497.8928572038798
 30
0.0
 10
882.9512181537085
 20
497.9213478228917
 30
0.0
 10
883.9324365842464
 20
497.8774159996582
 30
0.0
 10
884.7494952104934
 20
497.7907559252039
 30
0.0
 10
885.0958814483387
 20
497.7355546768852
 30
0.0
 10
885.1252385084405
 20
497.7308762393853
 30
0.0
  0
LINE
  5
140
330
1F
100
AcDbEntity
  8
0
  6
Continuous
 62
     7
370
    25
100
AcDbLine
 10
829.1252386426
 20
496.7186431535
 30
0.0
 11
829.1252386426
 21
497.7308762394
 31
0.0
  0
LINE
  5
141
330
1F
100
AcDbEntity
  8
0
  6
Continuous
 62
     7
370
    25
100
AcDbLine
 10
829.1252386426
 20
497.7308762394
 30
0.0
 11
829.546423689
 21
497.7308762394
 31
0.0
  0
LINE
  5
142
330
1F
100
AcDbEntity
  8
0
  6
Continuous
 62
     7
370
    25
100
AcDbLine
 10
822.5464225416
 20
497.7308762394
 30
0.0
 11
827.711025313
 21
497.7308762394
 31
0.0
  0
LINE
  5
143
330
1F
100
AcDbEntity
  8
0
  6
Continuous
 62
     7
370
    25
100
AcDbLine
 10
827.711025313
 20
497.7308762394
 30
0.0
 11
827.711025313
 21
496.7186431535
 31
0.0
  0
LINE
  5
144
330
1F
100
AcDbEntity
  8
0
  6
Continuous
 62
     7
370
    25
100
AcDbLine
 10
827.711025313
 20
496.7186431535
 30
0.0
 11
829.1252386426
 21
496.7186431535
 31
0.0
  0
SPLINE
  5
145
330
1F
100
AcDbEntity
  8
0
  6
Continuous
 62
     7
370
    25
100
AcDbSpline
210
0.0
220
0.0
230
1.0
 70
    11
 71
     3
 72
    26
 73
    22
 74
     0
 42
0.000000001
 43
0.00000001
 40
0.0
 40
0.0
 40
0.0
 40
0.0
 40
0.0521820730041901
 40
0.1043115349929015
 40
0.157798258854033
 40
0.2122588886009163
 40
0.2652869656993547
 40
0.3167942595112566
 40
0.3688805041009029
 40
0.4227922251528193
 40
0.47711137639988
 40
0.5295756517668128
 40
0.5808569428306916
 40
0.6334200962661884
 40
0.6877459732015012
 40
0.7416318555375744
 40
0.7936315354051968
 40
0.8451828844873266
 40
0.8982776146105416
 40
0.9527410452887863
 40
1.0
 40
1.0
 40
1.0
 40
1.0
 10
825.0464238827004
 20
494.8186435870787
 30
0.0
 10
825.0570155396434
 20
494.7087822158528
 30
0.0
 10
825.0781881748078
 20
494.4891702378449
 30
0.0
 10
825.2426855346235
 20
494.1951721671761
 30
0.0
 10
825.488526440588
 20
493.9654689693893
 30
0.0
 10
825.8027138817495
 20
493.8288602615171
 30
0.0
 10
826.1417245879745
 20
493.8047375840824
 30
0.0
 10
826.4640146953416
 20
493.8904782083812
 30
0.0
 10
826.741376278924
 20
494.0742263750229
 30
0.0
 10
826.9477857548927
 20
494.3425717932854
 30
0.0
 10
827.0543877029435
 20
494.6678675225507
 30
0.0
 10
827.047119863676
 20
495.0057704058123
 30
0.0
 10
826.9334952505287
 20
495.3175806438615
 30
0.0
 10
826.7252495532259
 20
495.5782284719017
 30
0.0
 10
826.4375889561538
 20
495.7600933699766
 30
0.0
 10
826.1040140226622
 20
495.8358953423754
 30
0.0
 10
825.7700033815452
 20
495.7982730244846
 30
0.0
 10
825.4690457817326
 20
495.6572692406045
 30
0.0
 10
825.2286555867842
 20
495.4248708860883
 30
0.0
 10
825.0739121651985
 20
495.1319782108465
 30
0.0
 10
825.055143548511
 20
494.9180376909584
 30
0.0
 10
825.0464238827004
 20
494.8186435870787
 30
0.0
  0
ARC
  5
146
330
1F
100
AcDbEntity
  8
0
  6
Continuous
 62
     7
370
    25
100
AcDbCircle
 10
832.9691389877
 20
494.8185018802
 30
0.0
 40
3.565767371898013
100
AcDbArc
 50
163.9365405008
 51
196.2843687656
  0
SPLINE
  5
147
330
1F
100
AcDbEntity
  8
0
  6
Continuous
 62
     7
370
    25
100
AcDbSpline
210
0.0
220
0.0
230
1.0
 70
     8
 71
     3
 72
    17
 73
    13
 74
     0
 42
0.000000001
 43
0.00000001
 40
0.0
 40
0.0
 40
0.0
 40
0.0
 40
0.1044657588333838
 40
0.2088333132353008
 40
0.3156795015974423
 40
0.4246338553038897
 40
0.5307655696626429
 40
0.6334869605288861
 40
0.7375427767104441
 40
0.8455089747593666
 40
0.9540353259634563
 40
1.0
 40
1.0
 40
1.0
 40
1.0
 10
822.5464225415959
 20
493.818643423166
 30
0.0
 10
822.5495298812526
 20
493.8292520277129
 30
0.0
 10
822.5557416394698
 20
493.8504592640463
 30
0.0
 10
822.5993744131205
 20
494.0152579146412
 30
0.0
 10
822.6501681625417
 20
494.2612425718035
 30
0.0
 10
822.6891080594938
 20
494.5752841605736
 30
0.0
 10
822.6964987152717
 20
494.9142699718441
 30
0.0
 10
822.6709214765051
 20
495.2357441142366
 30
0.0
 10
822.6236828150508
 20
495.5141983745442
 30
0.0
 10
822.5756444597567
 20
495.7156164312199
 30
0.0
 10
822.5464310917462
 20
495.8186552148424
 30
0.0
 10
822.5493759701801
 20
495.8082516423173
 30
0.0
 10
822.5502521400227
 20
495.8051563374659
 30
0.0
  0
SPLINE
  5
148
330
1F
100
AcDbEntity
  8
0
  6
Continuous
 62
     7
370
    25
100
AcDbSpline
210
0.0
220
0.0
230
1.0
 70
     8
 71
     3
 72
    12
 73
     8
 74
     0
 42
0.000000001
 43
0.00000001
 40
0.0
 40
0.0
 40
0.0
 40
0.0
 40
0.0684722723051066
 40
0.3286911517715443
 40
0.5893260748795168
 40
0.8495128372248805
 40
1.0
 40
1.0
 40
1.0
 40
1.0
 10
827.7110253129973
 20
497.7308762393853
 30
0.0
 10
827.6410729545846
 20
497.7417536039848
 30
0.0
 10
827.3052768654269
 20
497.7939688055264
 30
0.0
 10
826.700992540088
 20
497.8580965826531
 30
0.0
 10
825.8988092478246
 20
497.9003769750466
 30
0.0
 10
825.208601509135
 20
497.9131235783373
 30
0.0
 10
824.7867888614093
 20
497.8904800969661
 30
0.0
 10
824.6322200302853
 20
497.8821826301476
 30
0.0
  0
SPLINE
  5
149
330
1F
100
AcDbEntity
  8
0
  6
Continuous
 62
     7
370
    25
100
AcDbSpline
210
0.0
220
0.0
230
1.0
 70
     8
 71
     3
 72
    11
 73
     7
 74
     0
 42
0.000000001
 43
0.00000001
 40
0.0
 40
0.0
 40
0.0
 40
0.0
 40
0.1893084327384187
 40
0.6549892293115591
 40
0.9707595140213403
 40
1.0
 40
1.0
 40
1.0
 40
1.0
 10
826.0985185061469
 20
497.8846226952931
 30
0.0
 10
826.289710862256
 20
497.8928572038798
 30
0.0
 10
826.951218287819
 20
497.9213478228917
 30
0.0
 10
827.9324367183568
 20
497.8774159996582
 30
0.0
 10
828.7494953446038
 20
497.7907559252039
 30
0.0
 10
829.0958815824491
 20
497.7355546768852
 30
0.0
 10
829.1252386425509
 20
497.7308762393853
 30
0.0
  0
LINE
  5
14A
330
1F
100
AcDbEntity
  8
0
  6
Continuous
 62
     7
370
    25
100
AcDbLine
 10
804.6464212839
 20
519.5186416753
 30
0.0
 11
806.046422631
 21
519.5186416753
 31
0.0
  0
LINE
  5
14B
330
1F
100
AcDbEntity
  8
0
  6
Continuous
 62
     7
370
    25
100
AcDbLine
 10
804.6464212839
 20
488.5186431132
 30
0.0
 11
804.6464212839
 21
519.5186416753
 31
0.0
  0
LINE
  5
14C
330
1F
100
AcDbEntity
  8
0
  6
Continuous
 62
     7
370
    25
100
AcDbLine
 10
804.6464212839
 20
519.5186416753
 30
0.0
 11
804.6464212839
 21
534.5186422713
 31
0.0
  0
LINE
  5
14D
330
1F
100
AcDbEntity
  8
0
  6
Continuous
 62
     7
370
    25
100
AcDbLine
 10
799.94642368
 20
519.5186416753
 30
0.0
 11
799.94642368
 21
532.2186443157
 31
0.0
  0
LINE
  5
14E
330
1F
100
AcDbEntity
  8
0
  6
Continuous
 62
     7
370
    25
100
AcDbLine
 10
799.94642368
 20
506.8186427601
 30
0.0
 11
799.94642368
 21
519.5186416753
 31
0.0
  0
LINE
  5
14F
330
1F
100
AcDbEntity
  8
0
  6
Continuous
 62
     7
370
    25
100
AcDbLine
 10
903.4464248125
 20
519.5186416753
 30
0.0
 11
902.0464234655
 21
519.5186416753
 31
0.0
  0
LINE
  5
150
330
1F
100
AcDbEntity
  8
0
  6
Continuous
 62
     7
370
    25
100
AcDbLine
 10
903.4464248125
 20
519.5186416753
 30
0.0
 11
903.4464248125
 21
488.5186431132
 31
0.0
  0
LINE
  5
151
330
1F
100
AcDbEntity
  8
0
  6
Continuous
 62
     7
370
    25
100
AcDbLine
 10
903.4464248125
 20
534.5186422713
 30
0.0
 11
903.4464248125
 21
519.5186416753
 31
0.0
  0
LINE
  5
152
330
1F
100
AcDbEntity
  8
0
  6
Continuous
 62
     7
370
    25
100
AcDbLine
 10
908.1464224164
 20
532.2186443157
 30
0.0
 11
908.1464224164
 21
506.8186427601
 31
0.0
  0
CIRCLE
  5
153
330
1F
100
AcDbEntity
  8
0
  6
Continuous
 62
     7
370
    25
100
AcDbCircle
 10
854.0464230482
 20
519.518643225
 30
0.0
 40
12.70000000000005
  0
CIRCLE
  5
154
330
1F
100
AcDbEntity
  8
0
  6
Continuous
 62
     7
370
    25
100
AcDbCircle
 10
854.0464230482
 20
519.518643225
 30
0.0
 40
10.75
  0
ARC
  5
155
330
1F
100
AcDbEntity
  8
0
  6
Continuous
 62
     7
370
    25
100
AcDbCircle
 10
854.0464230482
 20
519.518643225
 30
0.0
 40
15.00000000000002
100
AcDbArc
 50
224.4932242308
 51
315.5067757692
  0
LINE
  5
156
330
1F
100
AcDbEntity
  8
0
  6
Continuous
 62
     7
370
    25
100
AcDbLine
 10
869.046422713
 20
488.5186431132
 30
0.0
 11
869.046422713
 21
519.5186416753
 31
0.0
  0
LINE
  5
157
330
1F
100
AcDbEntity
  8
0
  6
Continuous
 62
     7
370
    25
100
AcDbLine
 10
864.7464234983
 20
488.5186431132
 30
0.0
 11
864.7464234983
 21
509.0062691964
 31
0.0
  0
ARC
  5
158
330
1F
100
AcDbEntity
  8
0
  6
Continuous
 62
     7
370
    25
100
AcDbCircle
 10
854.0464230482
 20
519.518643225
 30
0.0
 40
15.0
100
AcDbArc
 50
0.0
 51
180.0
  0
LINE
  5
159
330
1F
100
AcDbEntity
  8
0
  6
Continuous
 62
     7
370
    25
100
AcDbLine
 10
839.0464233835
 20
519.5186416753
 30
0.0
 11
839.0464233835
 21
488.5186431132
 31
0.0
  0
LINE
  5
15A
330
1F
100
AcDbEntity
  8
0
  6
Continuous
 62
     7
370
    25
100
AcDbLine
 10
843.3464225982
 20
509.0062691964
 30
0.0
 11
843.3464225982
 21
488.5186431132
 31
0.0
  0
LINE
  5
15B
330
1F
100
AcDbEntity
  8
0
  6
Continuous
 62
     7
370
    25
100
AcDbLine
 10
806.046422631
 20
544.5186439104
 30
0.0
 11
806.046422631
 21
488.5186431132
 31
0.0
  0
LINE
  5
15C
330
1F
100
AcDbEntity
  8
0
  6
Continuous
 62
     7
370
    25
100
AcDbLine
 10
820.0464212005
 20
544.5186439104
 30
0.0
 11
806.046422631
 21
544.5186439104
 31
0.0
  0
LINE
  5
15D
330
1F
100
AcDbEntity
  8
0
  6
Continuous
 62
     7
370
    25
100
AcDbLine
 10
832.0464231674
 20
491.9186429255
 30
0.0
 11
820.0464212005
 21
491.9186429255
 31
0.0
  0
LINE
  5
15E
330
1F
100
AcDbEntity
  8
0
  6
Continuous
 62
     7
370
    25
100
AcDbLine
 10
832.0464231674
 20
491.9186429255
 30
0.0
 11
832.0464231674
 21
544.5186439104
 31
0.0
  0
LINE
  5
15F
330
1F
100
AcDbEntity
  8
0
  6
Continuous
 62
     7
370
    25
100
AcDbLine
 10
876.046422929
 20
544.5186439104
 30
0.0
 11
832.0464231674
 21
544.5186439104
 31
0.0
  0
LINE
  5
160
330
1F
100
AcDbEntity
  8
0
  6
Continuous
 62
     7
370
    25
100
AcDbLine
 10
876.046422929
 20
491.9186429255
 30
0.0
 11
876.046422929
 21
544.5186439104
 31
0.0
  0
LINE
  5
161
330
1F
100
AcDbEntity
  8
0
  6
Continuous
 62
     7
370
    25
100
AcDbLine
 10
888.046424896
 20
491.9186429255
 30
0.0
 11
876.046422929
 21
491.9186429255
 31
0.0
  0
LINE
  5
162
330
1F
100
AcDbEntity
  8
0
  6
Continuous
 62
     7
370
    25
100
AcDbLine
 10
888.046424896
 20
491.9186429255
 30
0.0
 11
888.046424896
 21
544.5186439104
 31
0.0
  0
LINE
  5
163
330
1F
100
AcDbEntity
  8
0
  6
Continuous
 62
     7
370
    25
100
AcDbLine
 10
902.0464234655
 20
544.5186439104
 30
0.0
 11
888.046424896
 21
544.5186439104
 31
0.0
  0
LINE
  5
164
330
1F
100
AcDbEntity
  8
0
  6
Continuous
 62
     7
370
    25
100
AcDbLine
 10
820.0464212005
 20
491.9186429255
 30
0.0
 11
820.0464212005
 21
544.5186439104
 31
0.0
  0
LINE
  5
165
330
1F
100
AcDbEntity
  8
0
  6
Continuous
 62
     7
370
    25
100
AcDbLine
 10
902.0464234655
 20
544.5186439104
 30
0.0
 11
902.0464234655
 21
488.5186431132
 31
0.0
  0
LINE
  5
166
330
1F
100
AcDbEntity
  8
0
  6
Continuous
 62
     7
370
    25
100
AcDbLine
 10
888.046424896
 20
544.5186439104
 30
0.0
 11
876.046422929
 21
544.5186439104
 31
0.0
  0
LINE
  5
167
330
1F
100
AcDbEntity
  8
0
  6
Continuous
 62
     7
370
    25
100
AcDbLine
 10
832.0464231674
 20
544.5186439104
 30
0.0
 11
820.0464212005
 21
544.5186439104
 31
0.0
  0
LINE
  5
168
330
1F
100
AcDbEntity
  8
0
  6
Continuous
 62
     7
370
    25
100
AcDbLine
 10
890.0464214985
 20
634.5186363108
 30
0.0
 11
818.046424598
 21
634.5186363108
 31
0.0
  0
ARC
  5
169
330
1F
100
AcDbEntity
  8
0
  6
Continuous
 62
     7
370
    25
100
AcDbCircle
 10
890.0464230482
 20
632.518643225
 30
0.0
 40
2.0
100
AcDbArc
 50
0.0
 51
90.0
  0
LINE
  5
16A
330
1F
100
AcDbEntity
  8
0
  6
Continuous
 62
     7
370
    25
100
AcDbLine
 10
892.0464218263
 20
560.5186428077
 30
0.0
 11
892.0464218263
 21
632.5186471589
 31
0.0
  0
ARC
  5
16B
330
1F
100
AcDbEntity
  8
0
  6
Continuous
 62
     7
370
    25
100
AcDbCircle
 10
890.0464230482
 20
560.518643225
 30
0.0
 40
2.0
100
AcDbArc
 50
270.0
 51
0.0
  0
LINE
  5
16C
330
1F
100
AcDbEntity
  8
0
  6
Continuous
 62
     7
370
    25
100
AcDbLine
 10
818.046424598
 20
558.5186462052
 30
0.0
 11
890.0464214985
 21
558.5186462052
 31
0.0
  0
ARC
  5
16D
330
1F
100
AcDbEntity
  8
0
  6
Continuous
 62
     7
370
    25
100
AcDbCircle
 10
818.0464230482
 20
560.518643225
 30
0.0
 40
2.0
100
AcDbArc
 50
180.0
 51
270.0
  0
ARC
  5
16E
330
1F
100
AcDbEntity
  8
0
  6
Continuous
 62
     7
370
    25
100
AcDbCircle
 10
818.0464230482
 20
632.518643225
 30
0.0
 40
2.0
100
AcDbArc
 50
90.0
 51
180.0
  0
LINE
  5
16F
330
1F
100
AcDbEntity
  8
0
  6
Continuous
 62
     7
370
    25
100
AcDbLine
 10
816.0464242701
 20
632.5186471589
 30
0.0
 11
816.0464242701
 21
560.5186428077
 31
0.0
  0
LINE
  5
170
330
1F
100
AcDbEntity
  8
0
  6
Continuous
 62
     7
370
    25
100
AcDbLine
 10
907.0464224224
 20
488.5186431132
 30
0.0
 11
907.0464224224
 21
506.8186427601
 31
0.0
  0
LINE
  5
171
330
1F
100
AcDbEntity
  8
0
  6
Continuous
 62
     7
370
    25
100
AcDbLine
 10
907.0464224224
 20
532.2186443157
 30
0.0
 11
907.0464224224
 21
743.5186336882
 31
0.0
  0
LINE
  5
172
330
1F
100
AcDbEntity
  8
0
  6
Continuous
 62
     7
370
    25
100
AcDbLine
 10
801.0464236741
 20
488.5186431132
 30
0.0
 11
801.0464236741
 21
506.8186427601
 31
0.0
  0
LINE
  5
173
330
1F
100
AcDbEntity
  8
0
  6
Continuous
 62
     7
370
    25
100
AcDbLine
 10
801.0464236741
 20
532.2186443157
 30
0.0
 11
801.0464236741
 21
743.5186336882
 31
0.0
  0
LINE
  5
174
330
1F
100
AcDbEntity
  8
0
  6
Continuous
 62
     7
370
    25
100
AcDbLine
 10
801.0464236741
 20
743.5186336882
 30
0.0
 11
806.046422631
 21
743.5186336882
 31
0.0
  0
ARC
  5
175
330
1F
100
AcDbEntity
  8
0
  6
Continuous
 62
     7
370
    25
100
AcDbCircle
 10
806.0464230482
 20
740.518643225
 30
0.0
 40
3.0
100
AcDbArc
 50
0.0
 51
90.0
  0
LINE
  5
176
330
1F
100
AcDbEntity
  8
0
  6
Continuous
 62
     7
370
    25
100
AcDbLine
 10
809.0464212601
 20
740.5186425097
 30
0.0
 11
809.0464212601
 21
701.5186379798
 31
0.0
  0
LINE
  5
177
330
1F
100
AcDbEntity
  8
0
  6
Continuous
 62
     7
370
    25
100
AcDbLine
 10
899.0464248364
 20
701.5186379798
 30
0.0
 11
809.0464212601
 21
701.5186379798
 31
0.0
  0
LINE
  5
178
330
1F
100
AcDbEntity
  8
0
  6
Continuous
 62
     7
370
    25
100
AcDbLine
 10
899.0464248364
 20
701.5186379798
 30
0.0
 11
899.0464248364
 21
740.5186425097
 31
0.0
  0
ARC
  5
179
330
1F
100
AcDbEntity
  8
0
  6
Continuous
 62
     7
370
    25
100
AcDbCircle
 10
902.0464230482
 20
740.518643225
 30
0.0
 40
3.0
100
AcDbArc
 50
90.0
 51
180.0
  0
LINE
  5
17A
330
1F
100
AcDbEntity
  8
0
  6
Continuous
 62
     7
370
    25
100
AcDbLine
 10
902.0464234655
 20
743.5186336882
 30
0.0
 11
907.0464224224
 21
743.5186336882
 31
0.0
  0
LINE
  5
17B
330
1F
100
AcDbEntity
  8
0
  6
Continuous
 62
     7
370
    25
100
AcDbLine
 10
911.7989540701
 20
643.4652785905
 30
0.0
 11
907.0464224224
 21
643.4652785905
 31
0.0
  0
LINE
  5
17C
330
1F
100
AcDbEntity
  8
0
  6
Continuous
 62
     7
370
    25
100
AcDbLine
 10
911.7989540701
 20
643.4652785905
 30
0.0
 11
911.7989540701
 21
488.5186431132
 31
0.0
  0
ELLIPSE
  5
17D
330
1F
100
AcDbEntity
  8
0
  6
Continuous
 62
     7
370
    25
100
AcDbEllipse
 10
913.0464230482
 20
638.891226227
 30
0.0
 11
-4.257868040768471
 21
26.87733076457073
 31
0.0
210
0.0
220
0.0
230
1.0
 40
0.0192682802
 41
6.256669154632133
 42
7.679914905963392
  0
ARC
  5
17E
330
1F
100
AcDbEntity
  8
0
  6
Continuous
 62
     7
370
    25
100
AcDbCircle
 10
913.0464230482
 20
670.0039245992
 30
0.0
 40
6.000000000000049
100
AcDbArc
 50
180.0
 51
225.0
  0
LINE
  5
17F
330
1F
100
AcDbEntity
  8
0
  6
Continuous
 62
     7
370
    25
100
AcDbLine
 10
796.2938920264
 20
488.5186431132
 30
0.0
 11
796.2938920264
 21
643.4652785905
 31
0.0
  0
LINE
  5
180
330
1F
100
AcDbEntity
  8
0
  6
Continuous
 62
     7
370
    25
100
AcDbLine
 10
796.2938920264
 20
643.4652785905
 30
0.0
 11
801.0464236741
 21
643.4652785905
 31
0.0
  0
ELLIPSE
  5
181
330
1F
100
AcDbEntity
  8
0
  6
Continuous
 62
     7
370
    25
100
AcDbEllipse
 10
795.0464230482
 20
638.891226227
 30
0.0
 11
4.257868040768358
 21
26.87733076457084
 31
0.0
210
0.0
220
0.0
230
1.0
 40
0.0192682802
 41
4.886455708395794
 42
6.309701459727711
  0
ARC
  5
182
330
1F
100
AcDbEntity
  8
0
  6
Continuous
 62
     7
370
    25
100
AcDbCircle
 10
795.0464230482
 20
670.0039245992
 30
0.0
 40
6.0
100
AcDbArc
 50
315.0
 51
0.0
  0
LINE
  5
183
330
1F
100
AcDbEntity
  8
0
  6
Continuous
 62
     7
370
    25
100
AcDbLine
 10
796.2938920264
 20
643.4652785905
 30
0.0
 11
764.4226886933
 21
611.5940789826
 31
0.0
  0
ELLIPSE
  5
184
330
1F
100
AcDbEntity
  8
0
  6
Continuous
 62
     7
370
    25
100
AcDbEllipse
 10
765.0464230482
 20
608.891226227
 30
0.0
 11
-2.116821834029907
 21
20.50848965108094
 31
0.0
210
0.0
220
0.0
230
1.0
 40
0.0167834106
 41
0.0136420558858777
 42
1.436887807217734
  0
LINE
  5
185
330
1F
100
AcDbEntity
  8
0
  6
Continuous
 62
     7
370
    25
100
AcDbLine
 10
762.9250996415
 20
629.3973158248
 30
0.0
 11
799.2890626793
 21
665.7612900384
 31
0.0
  0
LINE
  5
186
330
1F
100
AcDbEntity
  8
0
  6
Continuous
 62
     7
370
    25
100
AcDbLine
 10
908.8037834172
 20
665.7612900384
 30
0.0
 11
945.1677464549
 21
629.3973158248
 31
0.0
  0
ELLIPSE
  5
187
330
1F
100
AcDbEntity
  8
0
  6
Continuous
 62
     7
370
    25
100
AcDbEllipse
 10
943.0464230482
 20
608.891226227
 30
0.0
 11
2.116821834029793
 21
20.50848965108082
 31
0.0
210
0.0
220
0.0
230
1.0
 40
0.0167834106
 41
4.846297499961873
 42
6.269543251294616
  0
LINE
  5
188
330
1F
100
AcDbEntity
  8
0
  6
Continuous
 62
     7
370
    25
100
AcDbLine
 10
943.6701574032
 20
611.5940789826
 30
0.0
 11
911.7989540701
 21
643.4652785905
 31
0.0
  0
LINE
  5
189
330
1F
100
AcDbEntity
  8
0
  6
Continuous
 62
     7
370
    25
100
AcDbLine
 10
943.6701574032
 20
488.5186431132
 30
0.0
 11
943.6701574032
 21
611.5940789826
 31
0.0
  0
LINE
  5
18A
330
1F
100
AcDbEntity
  8
0
  6
Continuous
 62
     7
370
    25
100
AcDbLine
 10
764.4226886933
 20
611.5940789826
 30
0.0
 11
764.4226886933
 21
488.5186431132
 31
0.0
  0
LINE
  5
18B
330
1F
100
AcDbEntity
  8
0
  6
Continuous
 62
     7
370
    25
100
AcDbLine
 10
762.0464228694
 20
488.5186431132
 30
0.0
 11
762.0464228694
 21
611.5940789826
 31
0.0
  0
LINE
  5
18C
330
1F
100
AcDbEntity
  8
0
  6
Continuous
 62
     7
370
    25
100
AcDbLine
 10
762.0464228694
 20
611.5940789826
 30
0.0
 11
764.4226886933
 21
611.5940789826
 31
0.0
  0
LINE
  5
18D
330
1F
100
AcDbEntity
  8
0
  6
Continuous
 62
     7
370
    25
100
AcDbLine
 10
946.046423227
 20
611.5940789826
 30
0.0
 11
943.6701574032
 21
611.5940789826
 31
0.0
  0
LINE
  5
18E
330
1F
100
AcDbEntity
  8
0
  6
Continuous
 62
     7
370
    25
100
AcDbLine
 10
946.046423227
 20
611.5940789826
 30
0.0
 11
946.046423227
 21
488.5186431132
 31
0.0
  0
LINE
  5
18F
330
1F
100
AcDbEntity
  8
0
  6
Continuous
 62
     7
370
    25
100
AcDbLine
 10
762.0464228694
 20
611.5940789826
 30
0.0
 11
762.0464228694
 21
627.2760014184
 31
0.0
  0
ARC
  5
190
330
1F
100
AcDbEntity
  8
0
  6
Continuous
 62
     7
370
    25
100
AcDbCircle
 10
765.0464230482
 20
627.2760025379
 30
0.0
 40
3.0
100
AcDbArc
 50
135.0
 51
180.0
  0
LINE
  5
191
330
1F
100
AcDbEntity
  8
0
  6
Continuous
 62
     7
370
    25
100
AcDbLine
 10
946.046423227
 20
627.2760014184
 30
0.0
 11
946.046423227
 21
611.5940789826
 31
0.0
  0
ARC
  5
192
330
1F
100
AcDbEntity
  8
0
  6
Continuous
 62
     7
370
    25
100
AcDbCircle
 10
943.0464230482
 20
627.2760025379
 30
0.0
 40
3.000000000000114
100
AcDbArc
 50
0.0
 51
45.0
  0
LINE
  5
193
330
1F
100
AcDbEntity
  8
0
  6
Continuous
 62
     7
370
    25
100
AcDbLine
 10
828.0464225118
 20
701.5186379798
 30
0.0
 11
828.0464225118
 21
703.5186420329
 31
0.0
  0
LINE
  5
194
330
1F
100
AcDbEntity
  8
0
  6
Continuous
 62
     7
370
    25
100
AcDbLine
 10
880.0464235847
 20
703.5186420329
 30
0.0
 11
828.0464225118
 21
703.5186420329
 31
0.0
  0
LINE
  5
195
330
1F
100
AcDbEntity
  8
0
  6
Continuous
 62
     7
370
    25
100
AcDbLine
 10
880.0464235847
 20
703.5186420329
 30
0.0
 11
880.0464235847
 21
701.5186379798
 31
0.0
  0
LINE
  5
196
330
1F
100
AcDbEntity
  8
0
  6
Continuous
 62
     7
370
    25
100
AcDbLine
 10
824.0464237188
 20
703.5186420329
 30
0.0
 11
824.0464237188
 21
701.5186379798
 31
0.0
  0
LINE
  5
197
330
1F
100
AcDbEntity
  8
0
  6
Continuous
 62
     7
370
    25
100
AcDbLine
 10
828.0464225118
 20
703.5186420329
 30
0.0
 11
824.0464237188
 21
703.5186420329
 31
0.0
  0
LINE
  5
198
330
1F
100
AcDbEntity
  8
0
  6
Continuous
 62
     7
370
    25
100
AcDbLine
 10
884.0464223777
 20
701.5186379798
 30
0.0
 11
884.0464223777
 21
703.5186420329
 31
0.0
  0
LINE
  5
199
330
1F
100
AcDbEntity
  8
0
  6
Continuous
 62
     7
370
    25
100
AcDbLine
 10
884.0464223777
 20
703.5186420329
 30
0.0
 11
880.0464235847
 21
703.5186420329
 31
0.0
  0
LINE
  5
19A
330
1F
100
AcDbEntity
  8
0
  6
Continuous
 62
     7
370
    25
100
AcDbLine
 10
766.0464235251
 20
488.5186431132
 30
0.0
 11
766.0464235251
 21
483.518643225
 31
0.0
  0
LINE
  5
19B
330
1F
100
AcDbEntity
  8
0
  6
Continuous
 62
     7
370
    25
100
AcDbLine
 10
762.0464228694
 20
483.518643225
 30
0.0
 11
762.0464228694
 21
488.5186431132
 31
0.0
  0
LINE
  5
19C
330
1F
100
AcDbEntity
  8
0
  6
Continuous
 62
     7
370
    25
100
AcDbLine
 10
762.0464228694
 20
488.5186431132
 30
0.0
 11
766.0464235251
 21
488.5186431132
 31
0.0
  0
LINE
  5
19D
330
1F
100
AcDbEntity
  8
0
  6
Continuous
 62
     7
370
    25
100
AcDbLine
 10
766.0464235251
 20
483.518643225
 30
0.0
 11
762.0464228694
 21
483.518643225
 31
0.0
  0
LINE
  5
19E
330
1F
100
AcDbEntity
  8
0
  6
Continuous
 62
     7
370
    25
100
AcDbLine
 10
766.0464235251
 20
488.5186431132
 30
0.0
 11
942.0464225714
 21
488.5186431132
 31
0.0
  0
LINE
  5
19F
330
1F
100
AcDbEntity
  8
0
  6
Continuous
 62
     7
370
    25
100
AcDbLine
 10
942.0464225714
 20
483.518643225
 30
0.0
 11
942.0464225714
 21
488.5186431132
 31
0.0
  0
LINE
  5
1A0
330
1F
100
AcDbEntity
  8
0
  6
Continuous
 62
     7
370
    25
100
AcDbLine
 10
766.0464235251
 20
483.518643225
 30
0.0
 11
942.0464225714
 21
483.518643225
 31
0.0
  0
LINE
  5
1A1
330
1F
100
AcDbEntity
  8
0
  6
Continuous
 62
     7
370
    25
100
AcDbLine
 10
946.046423227
 20
488.5186431132
 30
0.0
 11
946.046423227
 21
483.518643225
 31
0.0
  0
LINE
  5
1A2
330
1F
100
AcDbEntity
  8
0
  6
Continuous
 62
     7
370
    25
100
AcDbLine
 10
942.0464225714
 20
488.5186431132
 30
0.0
 11
946.046423227
 21
488.5186431132
 31
0.0
  0
LINE
  5
1A3
330
1F
100
AcDbEntity
  8
0
  6
Continuous
 62
     7
370
    25
100
AcDbLine
 10
946.046423227
 20
483.518643225
 30
0.0
 11
942.0464225714
 21
483.518643225
 31
0.0
  0
LINE
  5
1A4
330
1F
100
AcDbEntity
  8
0
  6
Continuous
 62
     7
370
    25
100
AcDbLine
 10
681.9958773173
 20
310.1015698195
 30
0.0
 11
680.3958800352
 21
310.1015698195
 31
0.0
  0
LINE
  5
1A5
330
1F
100
AcDbEntity
  8
0
  6
Continuous
 62
     7
370
    25
100
AcDbLine
 10
680.3958800352
 20
294.1015690595
 30
0.0
 11
681.9958773173
 21
294.1015690595
 31
0.0
  0
LINE
  5
1A6
330
1F
100
AcDbEntity
  8
0
  6
Continuous
 62
     7
370
    25
100
AcDbLine
 10
680.3958800352
 20
310.1015698195
 30
0.0
 11
678.795867852
 21
310.1015698195
 31
0.0
  0
LINE
  5
1A7
330
1F
100
AcDbEntity
  8
0
  6
Continuous
 62
     7
370
    25
100
AcDbLine
 10
678.795867852
 20
294.1015690595
 30
0.0
 11
680.3958800352
 21
294.1015690595
 31
0.0
  0
LINE
  5
1A8
330
1F
100
AcDbEntity
  8
0
  6
Continuous
 62
     7
370
    25
100
AcDbLine
 10
682.5958725727
 20
308.6015695736
 30
0.0
 11
681.9958773173
 21
308.6015695736
 31
0.0
  0
LINE
  5
1A9
330
1F
100
AcDbEntity
  8
0
  6
Continuous
 62
     7
370
    25
100
AcDbLine
 10
681.9958773173
 20
295.6015693054
 30
0.0
 11
682.5958725727
 21
295.6015693054
 31
0.0
  0
LINE
  5
1AA
330
1F
100
AcDbEntity
  8
0
  6
Continuous
 62
     7
370
    25
100
AcDbLine
 10
670.6863728083
 20
306.1015696295
 30
0.0
 11
669.9958678997
 21
305.4110693776
 31
0.0
  0
LINE
  5
1AB
330
1F
100
AcDbEntity
  8
0
  6
Continuous
 62
     7
370
    25
100
AcDbLine
 10
669.9958678997
 20
298.7920695015
 30
0.0
 11
670.6863728083
 21
298.1015692495
 31
0.0
  0
LINE
  5
1AC
330
1F
100
AcDbEntity
  8
0
  6
Continuous
 62
     7
370
    25
100
AcDbLine
 10
673.7958726204
 20
306.1015696295
 30
0.0
 11
670.6863728083
 21
306.1015696295
 31
0.0
  0
LINE
  5
1AD
330
1F
100
AcDbEntity
  8
0
  6
Continuous
 62
     7
370
    25
100
AcDbLine
 10
670.6863728083
 20
298.1015692495
 30
0.0
 11
673.7958726204
 21
298.1015692495
 31
0.0
  0
LINE
  5
1AE
330
1F
100
AcDbEntity
  8
0
  6
Continuous
 62
     7
370
    25
100
AcDbLine
 10
251.495876602
 20
351.5015712038
 30
0.0
 11
251.495876602
 21
356.2015688077
 31
0.0
  0
LINE
  5
1AF
330
1F
100
AcDbEntity
  8
0
  6
Continuous
 62
     7
370
    25
100
AcDbLine
 10
226.0958787716
 20
356.2015688077
 30
0.0
 11
226.0958787716
 21
351.5015712038
 31
0.0
  0
LINE
  5
1B0
330
1F
100
AcDbEntity
  8
0
  6
Continuous
 62
     7
370
    25
100
AcDbLine
 10
226.0958787716
 20
252.7015676752
 30
0.0
 11
226.0958787716
 21
248.0015700713
 31
0.0
  0
LINE
  5
1B1
330
1F
100
AcDbEntity
  8
0
  6
Continuous
 62
     7
370
    25
100
AcDbLine
 10
251.495876602
 20
248.0015700713
 30
0.0
 11
251.495876602
 21
252.7015676752
 31
0.0
  0
LINE
  5
1B2
330
1F
100
AcDbEntity
  8
0
  6
Continuous
 62
     7
370
    25
100
AcDbLine
 10
215.395876459
 20
314.801569286
 30
0.0
 11
210.6958714045
 21
314.801569286
 31
0.0
  0
LINE
  5
1B3
330
1F
100
AcDbEntity
  8
0
  6
Continuous
 62
     7
370
    25
100
AcDbLine
 10
210.6958714045
 20
289.401569593
 30
0.0
 11
215.395876459
 21
289.401569593
 31
0.0
  0
ARC
  5
1B4
330
1F
100
AcDbEntity
  8
0
  6
Continuous
 62
     7
370
    25
100
AcDbCircle
 10
504.7958745278
 20
302.1015694395
 30
0.0
 40
9.0
100
AcDbArc
 50
270.0
 51
330.0
  0
ARC
  5
1B5
330
1F
100
AcDbEntity
  8
0
  6
Continuous
 62
     7
370
    25
100
AcDbCircle
 10
504.7958745278
 20
302.1015694395
 30
0.0
 40
9.0
100
AcDbArc
 50
210.0
 51
270.0
  0
ARC
  5
1B6
330
1F
100
AcDbEntity
  8
0
  6
Continuous
 62
     7
370
    25
100
AcDbCircle
 10
504.7958745278
 20
302.1015694395
 30
0.0
 40
9.0
100
AcDbArc
 50
150.0
 51
210.0
  0
ARC
  5
1B7
330
1F
100
AcDbEntity
  8
0
  6
Continuous
 62
     7
370
    25
100
AcDbCircle
 10
504.7958745278
 20
302.1015694395
 30
0.0
 40
9.0
100
AcDbArc
 50
90.0
 51
150.0
  0
ARC
  5
1B8
330
1F
100
AcDbEntity
  8
0
  6
Continuous
 62
     7
370
    25
100
AcDbCircle
 10
504.7958745278
 20
302.1015694395
 30
0.0
 40
9.0
100
AcDbArc
 50
30.0
 51
90.0
  0
ARC
  5
1B9
330
1F
100
AcDbEntity
  8
0
  6
Continuous
 62
     7
370
    25
100
AcDbCircle
 10
504.7958745278
 20
302.1015694395
 30
0.0
 40
9.0
100
AcDbArc
 50
330.0
 51
30.0
  0
SPLINE
  5
1BA
330
1F
100
AcDbEntity
  8
0
  6
Continuous
 62
     7
370
    25
100
AcDbSpline
210
0.0
220
0.0
230
1.0
 70
     8
 71
     3
 72
    12
 73
     8
 74
     0
 42
0.000000001
 43
0.00000001
 40
0.0
 40
0.0
 40
0.0
 40
0.0
 40
0.199457377257596
 40
0.3989290997243083
 40
0.6014544270224936
 40
0.8040076961315269
 40
1.0
 40
1.0
 40
1.0
 40
1.0
 10
512.5901040352061
 20
306.6015692458105
 30
0.0
 10
512.4147177186184
 20
306.9053453709807
 30
0.0
 10
512.0639324714527
 20
307.5129194692572
 30
0.0
 10
511.5373935009517
 20
308.4249211093841
 30
0.0
 10
511.012586591114
 20
309.3339039127357
 30
0.0
 10
510.4958665250429
 20
310.2288986063979
 30
0.0
 10
510.1581201350866
 20
310.8138889936313
 30
0.0
 10
509.992026976414
 20
311.1015690520954
 30
0.0
  0
SPLINE
  5
1BB
330
1F
100
AcDbEntity
  8
0
  6
Continuous
 62
     7
370
    25
100
AcDbSpline
210
0.0
220
0.0
230
1.0
 70
    24
 71
     3
 72
    11
 73
     7
 74
     0
 42
0.000000001
 43
0.00000001
 40
0.0
 40
0.0
 40
0.0
 40
0.0
 40
0.2477113989914226
 40
0.4953647062826807
 40
0.7477051669622914
 40
0.9999999999999999
 40
0.9999999999999999
 40
0.9999999999999999
 40
0.9999999999999999
 10
509.992026976414
 20
311.1015690520954
 30
0.0
 10
509.5718380908917
 20
311.1015690520954
 30
0.0
 10
508.7315588598694
 20
311.1015690520954
 30
0.0
 10
507.4405672299447
 20
311.1015690520954
 30
0.0
 10
506.1271051072841
 20
311.1015690520954
 30
0.0
 10
505.2395901928167
 20
311.1015690520954
 30
0.0
 10
504.7958728588297
 20
311.1015690520954
 30
0.0
  0
SPLINE
  5
1BC
330
1F
100
AcDbEntity
  8
0
  6
Continuous
 62
     7
370
    25
100
AcDbSpline
210
0.0
220
0.0
230
1.0
 70
     8
 71
     3
 72
    12
 73
     8
 74
     0
 42
0.000000001
 43
0.00000001
 40
0.0
 40
0.0
 40
0.0
 40
0.0
 40
0.0700556789828424
 40
0.3004250797446651
 40
0.5308299181027875
 40
0.7653925632341264
 40
1.0
 40
1.0
 40
1.0
 40
1.0
 10
512.5901040352061
 20
297.6015696332407
 30
0.0
 10
512.6516919472415
 20
297.7082448251646
 30
0.0
 10
512.9158040599667
 20
298.165708138715
 30
0.0
 10
513.3820917022628
 20
298.9733221744915
 30
0.0
 10
513.988089078508
 20
300.0229552279969
 30
0.0
 10
514.5913874717297
 20
301.0678932489179
 30
0.0
 10
514.9892372256794
 20
301.7569887800225
 30
0.0
 10
515.1881810939982
 20
302.1015694395256
 30
0.0
  0
SPLINE
  5
1BD
330
1F
100
AcDbEntity
  8
0
  6
Continuous
 62
     7
370
    25
100
AcDbSpline
210
0.0
220
0.0
230
1.0
 70
     8
 71
     3
 72
    12
 73
     8
 74
     0
 42
0.000000001
 43
0.00000001
 40
0.0
 40
0.0
 40
0.0
 40
0.0
 40
0.1940125030781356
 40
0.3880044741106534
 40
0.5839769773131673
 40
0.7799275590324507
 40
0.9999999999999999
 40
0.9999999999999999
 40
0.9999999999999999
 40
0.9999999999999999
 10
515.1881810939982
 20
302.1015694395256
 30
0.0
 10
515.0237715085813
 20
302.3863327450459
 30
0.0
 10
514.6949697369619
 20
302.9558292200226
 30
0.0
 10
514.1931476112178
 20
303.8250048919352
 30
0.0
 10
513.6848518173724
 20
304.705422003434
 30
0.0
 10
513.1494631752145
 20
305.6327221773237
 30
0.0
 10
512.7836277094859
 20
306.2663734277784
 30
0.0
 10
512.5901040352061
 20
306.6015692458105
 30
0.0
  0
SPLINE
  5
1BE
330
1F
100
AcDbEntity
  8
0
  6
Continuous
 62
     7
370
    25
100
AcDbSpline
210
0.0
220
0.0
230
1.0
 70
     8
 71
     3
 72
    11
 73
     7
 74
     0
 42
0.000000001
 43
0.00000001
 40
0.0
 40
0.0
 40
0.0
 40
0.0
 40
0.2477110011499254
 40
0.4953651344855844
 40
0.7477051772100632
 40
0.9999999999999999
 40
0.9999999999999999
 40
0.9999999999999999
 40
0.9999999999999999
 10
499.5997224665358
 20
311.1015690520954
 30
0.0
 10
499.3896289192125
 20
310.7376752912726
 30
0.0
 10
498.9694900564199
 20
310.0099713098926
 30
0.0
 10
498.3239908988896
 20
308.8919416804756
 30
0.0
 10
497.6672616051388
 20
307.7544488842835
 30
0.0
 10
497.223504218625
 20
306.9858395004735
 30
0.0
 10
497.0016454077436
 20
306.6015692458105
 30
0.0
  0
SPLINE
  5
1BF
330
1F
100
AcDbEntity
  8
0
  6
Continuous
 62
     7
370
    25
100
AcDbSpline
210
0.0
220
0.0
230
1.0
 70
    24
 71
     3
 72
    12
 73
     8
 74
     0
 42
0.000000001
 43
0.00000001
 40
0.0
 40
0.0
 40
0.0
 40
0.0
 40
0.0700556977907369
 40
0.3004250874387635
 40
0.530829968249497
 40
0.7653929117103665
 40
1.0
 40
1.0
 40
1.0
 40
1.0
 10
504.7958728588297
 20
311.1015690520954
 30
0.0
 10
504.6726954956009
 20
311.1015690520954
 30
0.0
 10
504.1444647979488
 20
311.1015690520954
 30
0.0
 10
503.2119070035612
 20
311.1015690520954
 30
0.0
 10
501.9998994076543
 20
311.1015690520954
 30
0.0
 10
500.7933077291752
 20
311.1015690520954
 30
0.0
 10
499.9976091768586
 20
311.1015690520954
 30
0.0
 10
499.5997224665358
 20
311.1015690520954
 30
0.0
  0
SPLINE
  5
1C0
330
1F
100
AcDbEntity
  8
0
  6
Continuous
 62
     7
370
    25
100
AcDbSpline
210
0.0
220
0.0
230
1.0
 70
     8
 71
     3
 72
    12
 73
     8
 74
     0
 42
0.000000001
 43
0.00000001
 40
0.0
 40
0.0
 40
0.0
 40
0.0
 40
0.070056032205343
 40
0.3004247285286753
 40
0.5308299172271477
 40
0.7653925627962744
 40
1.0
 40
1.0
 40
1.0
 40
1.0
 10
497.0016454077436
 20
306.6015692458105
 30
0.0
 10
496.9400560269191
 20
306.4948941843352
 30
0.0
 10
496.6759392559287
 20
306.0374342715245
 30
0.0
 10
496.2096649644837
 20
305.229812576922
 30
0.0
 10
495.6036587001132
 20
304.1801852953534
 30
0.0
 10
495.0003624665082
 20
303.1352453475725
 30
0.0
 10
494.6025123823769
 20
302.4461500048358
 30
0.0
 10
494.4035683489515
 20
302.1015694395256
 30
0.0
  0
SPLINE
  5
1C1
330
1F
100
AcDbEntity
  8
0
  6
Continuous
 62
     7
370
    25
100
AcDbSpline
210
0.0
220
0.0
230
1.0
 70
     8
 71
     3
 72
    12
 73
     8
 74
     0
 42
0.000000001
 43
0.00000001
 40
0.0
 40
0.0
 40
0.0
 40
0.0
 40
0.1959924859653378
 40
0.3956253954143334
 40
0.595231439293497
 40
0.7976234944894748
 40
1.0
 40
1.0
 40
1.0
 40
1.0
 10
494.4035683489515
 20
302.1015694395256
 30
0.0
 10
494.5696607388226
 20
301.813889707142
 30
0.0
 10
494.9049305686551
 20
301.2331867923523
 30
0.0
 10
495.4165886841977
 20
300.3469727915462
 30
0.0
 10
495.9387372856116
 20
299.4425803606488
 30
0.0
 10
496.4677714740897
 20
298.5262629167701
 30
0.0
 10
496.8236919875681
 20
297.9097928335967
 30
0.0
 10
497.0016454077436
 20
297.6015696332407
 30
0.0
  0
SPLINE
  5
1C2
330
1F
100
AcDbEntity
  8
0
  6
Continuous
 62
     7
370
    25
100
AcDbSpline
210
0.0
220
0.0
230
1.0
 70
    24
 71
     3
 72
    11
 73
     7
 74
     0
 42
0.000000001
 43
0.00000001
 40
0.0
 40
0.0
 40
0.0
 40
0.0
 40
0.2477108880248848
 40
0.495365060570535
 40
0.7477056969354208
 40
0.9999999999999999
 40
0.9999999999999999
 40
0.9999999999999999
 40
0.9999999999999999
 10
499.5997224665358
 20
293.1015698269558
 30
0.0
 10
500.0199100802457
 20
293.1015698269558
 30
0.0
 10
500.8601891021978
 20
293.1015698269558
 30
0.0
 10
502.1511810783857
 20
293.1015698269558
 30
0.0
 10
503.4646430842166
 20
293.1015698269558
 30
0.0
 10
504.3521567631242
 20
293.1015698269558
 30
0.0
 10
504.7958728588297
 20
293.1015698269558
 30
0.0
  0
SPLINE
  5
1C3
330
1F
100
AcDbEntity
  8
0
  6
Continuous
 62
     7
370
    25
100
AcDbSpline
210
0.0
220
0.0
230
1.0
 70
     8
 71
     3
 72
    12
 73
     8
 74
     0
 42
0.000000001
 43
0.00000001
 40
0.0
 40
0.0
 40
0.0
 40
0.0
 40
0.2200727031800603
 40
0.4139132284370609
 40
0.6077757462327597
 40
0.8038775334675179
 40
1.0
 40
1.0
 40
1.0
 40
1.0
 10
497.0016454077436
 20
297.6015696332407
 30
0.0
 10
497.1951715441031
 20
297.2663740826652
 30
0.0
 10
497.5591559307627
 20
296.6359375474129
 30
0.0
 10
498.0908541505639
 20
295.7150032926747
 30
0.0
 10
498.5974061812846
 20
294.8376360646924
 30
0.0
 10
499.1011305624509
 20
293.9651545142913
 30
0.0
 10
499.4335193236467
 20
293.3894415072018
 30
0.0
 10
499.5997224665358
 20
293.1015698269558
 30
0.0
  0
SPLINE
  5
1C4
330
1F
100
AcDbEntity
  8
0
  6
Continuous
 62
     7
370
    25
100
AcDbSpline
210
0.0
220
0.0
230
1.0
 70
    24
 71
     3
 72
    12
 73
     8
 74
     0
 42
0.000000001
 43
0.00000001
 40
0.0
 40
0.0
 40
0.0
 40
0.0
 40
0.0700563554836149
 40
0.3004248808032269
 40
0.5308303019496585
 40
0.7653923909724952
 40
1.0
 40
1.0
 40
1.0
 40
1.0
 10
504.7958728588297
 20
293.1015698269558
 30
0.0
 10
504.9190514648587
 20
293.1015698269558
 30
0.0
 10
505.4472821696722
 20
293.1015698269558
 30
0.0
 10
506.3798411192099
 20
293.1015698269558
 30
0.0
 10
507.5918477193985
 20
293.1015698269558
 30
0.0
 10
508.7984402202732
 20
293.1015698269558
 30
0.0
 10
509.5941389908127
 20
293.1015698269558
 30
0.0
 10
509.992026976414
 20
293.1015698269558
 30
0.0
  0
SPLINE
  5
1C5
330
1F
100
AcDbEntity
  8
0
  6
Continuous
 62
     7
370
    25
100
AcDbSpline
210
0.0
220
0.0
230
1.0
 70
     8
 71
     3
 72
    11
 73
     7
 74
     0
 42
0.000000001
 43
0.00000001
 40
0.0
 40
0.0
 40
0.0
 40
0.0
 40
0.2477110011499254
 40
0.4953651344855844
 40
0.7477051772100632
 40
0.9999999999999999
 40
0.9999999999999999
 40
0.9999999999999999
 40
0.9999999999999999
 10
509.992026976414
 20
293.1015698269558
 30
0.0
 10
510.2021205237373
 20
293.4654635877785
 30
0.0
 10
510.6222593865298
 20
294.1931675691585
 30
0.0
 10
511.2677585440601
 20
295.3111971985757
 30
0.0
 10
511.9244878378109
 20
296.4486899947677
 30
0.0
 10
512.3682452243248
 20
297.2172993785777
 30
0.0
 10
512.5901040352061
 20
297.6015696332407
 30
0.0
  0
ARC
  5
1C6
330
1F
100
AcDbEntity
  8
0
  6
Continuous
 62
     7
370
    25
100
AcDbCircle
 10
352.7958745278
 20
302.1015694395
 30
0.0
 40
9.00000000000005
100
AcDbArc
 50
270.0
 51
330.0
  0
ARC
  5
1C7
330
1F
100
AcDbEntity
  8
0
  6
Continuous
 62
     7
370
    25
100
AcDbCircle
 10
352.7958745278
 20
302.1015694395
 30
0.0
 40
9.0
100
AcDbArc
 50
210.0
 51
270.0
  0
ARC
  5
1C8
330
1F
100
AcDbEntity
  8
0
  6
Continuous
 62
     7
370
    25
100
AcDbCircle
 10
352.7958745278
 20
302.1015694395
 30
0.0
 40
9.0
100
AcDbArc
 50
150.0
 51
210.0
  0
ARC
  5
1C9
330
1F
100
AcDbEntity
  8
0
  6
Continuous
 62
     7
370
    25
100
AcDbCircle
 10
352.7958745278
 20
302.1015694395
 30
0.0
 40
9.0
100
AcDbArc
 50
90.0
 51
150.0
  0
ARC
  5
1CA
330
1F
100
AcDbEntity
  8
0
  6
Continuous
 62
     7
370
    25
100
AcDbCircle
 10
352.7958745278
 20
302.1015694395
 30
0.0
 40
9.0
100
AcDbArc
 50
30.0
 51
90.0
  0
ARC
  5
1CB
330
1F
100
AcDbEntity
  8
0
  6
Continuous
 62
     7
370
    25
100
AcDbCircle
 10
352.7958745278
 20
302.1015694395
 30
0.0
 40
9.00000000000005
100
AcDbArc
 50
330.0
 51
30.0
  0
SPLINE
  5
1CC
330
1F
100
AcDbEntity
  8
0
  6
Continuous
 62
     7
370
    25
100
AcDbSpline
210
0.0
220
0.0
230
1.0
 70
     8
 71
     3
 72
    12
 73
     8
 74
     0
 42
0.000000001
 43
0.00000001
 40
0.0
 40
0.0
 40
0.0
 40
0.0
 40
0.0700556789828435
 40
0.3004250797446699
 40
0.5308299181027959
 40
0.7653925632341385
 40
1.0
 40
1.0
 40
1.0
 40
1.0
 10
345.0016465700342
 20
306.6015692458105
 30
0.0
 10
344.9400586579987
 20
306.4948940538866
 30
0.0
 10
344.6759465452736
 20
306.0374307403362
 30
0.0
 10
344.2096589029774
 20
305.2298167045597
 30
0.0
 10
343.6036615267323
 20
304.1801836510543
 30
0.0
 10
343.0003631335106
 20
303.1352456301334
 30
0.0
 10
342.6025133795609
 20
302.4461500990287
 30
0.0
 10
342.4035695112421
 20
302.1015694395256
 30
0.0
  0
SPLINE
  5
1CD
330
1F
100
AcDbEntity
  8
0
  6
Continuous
 62
     7
370
    25
100
AcDbSpline
210
0.0
220
0.0
230
1.0
 70
     8
 71
     3
 72
    12
 73
     8
 74
     0
 42
0.000000001
 43
0.00000001
 40
0.0
 40
0.0
 40
0.0
 40
0.0
 40
0.1959924850260838
 40
0.3956250485403283
 40
0.5952310914629245
 40
0.7976238483585913
 40
0.9999999999999999
 40
0.9999999999999999
 40
0.9999999999999999
 40
0.9999999999999999
 10
342.4035695112421
 20
302.1015694395256
 30
0.0
 10
342.5696621664852
 20
301.8138898506879
 30
0.0
 10
342.9049322396413
 20
301.2331877320181
 30
0.0
 10
343.4165859777431
 20
300.3469720517173
 30
0.0
 10
343.9387334306948
 20
299.4425782079348
 30
0.0
 10
344.4677780232687
 20
298.5262660022345
 30
0.0
 10
344.8236952548328
 20
297.9097933261729
 30
0.0
 10
345.0016465700342
 20
297.6015696332407
 30
0.0
  0
SPLINE
  5
1CE
330
1F
100
AcDbEntity
  8
0
  6
Continuous
 62
     7
370
    25
100
AcDbSpline
210
0.0
220
0.0
230
1.0
 70
     8
 71
     3
 72
    12
 73
     8
 74
     0
 42
0.000000001
 43
0.00000001
 40
0.0
 40
0.0
 40
0.0
 40
0.0
 40
0.1940118173148682
 40
0.3880037848837766
 40
0.5839769813257967
 40
0.7799268572298851
 40
1.0
 40
1.0
 40
1.0
 40
1.0
 10
363.1881785309984
 20
302.1015694395256
 30
0.0
 10
363.0237717185047
 20
302.3863328945027
 30
0.0
 10
362.6949749143145
 20
302.9558306697252
 30
0.0
 10
362.193154119416
 20
303.8250071918154
 30
0.0
 10
361.684846222586
 20
304.7054174908881
 30
0.0
 10
361.1494708705778
 20
305.6327266186079
 30
0.0
 10
360.7836291004654
 20
306.2663742631305
 30
0.0
 10
360.5901014722063
 20
306.6015692458105
 30
0.0
  0
SPLINE
  5
1CF
330
1F
100
AcDbEntity
  8
0
  6
Continuous
 62
     7
370
    25
100
AcDbSpline
210
0.0
220
0.0
230
1.0
 70
     8
 71
     3
 72
    12
 73
     8
 74
     0
 42
0.000000001
 43
0.00000001
 40
0.0
 40
0.0
 40
0.0
 40
0.0
 40
0.070056385079177
 40
0.3004250806683745
 40
0.5308299187222747
 40
0.7653925635439015
 40
1.0
 40
1.0
 40
1.0
 40
1.0
 10
360.5901014722063
 20
297.6015696332407
 30
0.0
 10
360.6516922033042
 20
297.7082446319654
 30
0.0
 10
360.9158137439399
 20
298.1657025076598
 30
0.0
 10
361.3820853433127
 20
298.9733257806627
 30
0.0
 10
361.9880877153706
 20
300.0229545363748
 30
0.0
 10
362.5913846064651
 20
301.0678934231487
 30
0.0
 10
362.9892345619183
 20
301.7569888381032
 30
0.0
 10
363.1881785309984
 20
302.1015694395256
 30
0.0
  0
SPLINE
  5
1D0
330
1F
100
AcDbEntity
  8
0
  6
Continuous
 62
     7
370
    25
100
AcDbSpline
210
0.0
220
0.0
230
1.0
 70
     8
 71
     3
 72
    11
 73
     7
 74
     0
 42
0.000000001
 43
0.00000001
 40
0.0
 40
0.0
 40
0.0
 40
0.0
 40
0.2477110011499254
 40
0.4953651344855844
 40
0.7477051772100632
 40
0.9999999999999999
 40
0.9999999999999999
 40
0.9999999999999999
 40
0.9999999999999999
 10
347.5997236288263
 20
311.1015690520954
 30
0.0
 10
347.3896300815031
 20
310.7376752912726
 30
0.0
 10
346.9694912187105
 20
310.0099713098926
 30
0.0
 10
346.3239920611801
 20
308.8919416804756
 30
0.0
 10
345.6672627674294
 20
307.7544488842835
 30
0.0
 10
345.2235053809155
 20
306.9858395004735
 30
0.0
 10
345.0016465700342
 20
306.6015692458105
 30
0.0
  0
SPLINE
  5
1D1
330
1F
100
AcDbEntity
  8
0
  6
Continuous
 62
     7
370
    25
100
AcDbSpline
210
0.0
220
0.0
230
1.0
 70
    24
 71
     3
 72
    12
 73
     8
 74
     0
 42
0.000000001
 43
0.00000001
 40
0.0
 40
0.0
 40
0.0
 40
0.0
 40
0.0700563545873679
 40
0.3004255818273219
 40
0.530831000026124
 40
0.7653923939738843
 40
1.0
 40
1.0
 40
1.0
 40
1.0
 10
352.7958777464106
 20
311.1015690520954
 30
0.0
 10
352.672699140486
 20
311.1015690520954
 30
0.0
 10
352.144467196767
 20
311.1015690520954
 30
0.0
 10
351.2119070013784
 20
311.1015690520954
 30
0.0
 10
349.9999003110722
 20
311.1015690520954
 30
0.0
 10
348.7933092559885
 20
311.1015690520954
 30
0.0
 10
347.9976116293486
 20
311.1015690520954
 30
0.0
 10
347.5997236288263
 20
311.1015690520954
 30
0.0
  0
SPLINE
  5
1D2
330
1F
100
AcDbEntity
  8
0
  6
Continuous
 62
     7
370
    25
100
AcDbSpline
210
0.0
220
0.0
230
1.0
 70
     8
 71
     3
 72
    12
 73
     8
 74
     0
 42
0.000000001
 43
0.00000001
 40
0.0
 40
0.0
 40
0.0
 40
0.0
 40
0.199457377257596
 40
0.3989290997243083
 40
0.6014544270224936
 40
0.8040076961315269
 40
1.0
 40
1.0
 40
1.0
 40
1.0
 10
360.5901014722063
 20
306.6015692458105
 30
0.0
 10
360.4147151556186
 20
306.9053453709807
 30
0.0
 10
360.063929908453
 20
307.5129194692572
 30
0.0
 10
359.537390937952
 20
308.4249211093841
 30
0.0
 10
359.0125840281143
 20
309.3339039127357
 30
0.0
 10
358.4958639620432
 20
310.2288986063979
 30
0.0
 10
358.1581175720868
 20
310.8138889936313
 30
0.0
 10
357.9920244134142
 20
311.1015690520954
 30
0.0
  0
SPLINE
  5
1D3
330
1F
100
AcDbEntity
  8
0
  6
Continuous
 62
     7
370
    25
100
AcDbSpline
210
0.0
220
0.0
230
1.0
 70
    24
 71
     3
 72
    11
 73
     7
 74
     0
 42
0.000000001
 43
0.00000001
 40
0.0
 40
0.0
 40
0.0
 40
0.0
 40
0.2477110608181926
 40
0.4953647132846832
 40
0.7477062265720302
 40
1.0
 40
1.0
 40
1.0
 40
1.0
 10
357.9920244134142
 20
311.1015690520954
 30
0.0
 10
357.571836784473
 20
311.1015690520954
 30
0.0
 10
356.7315589073012
 20
311.1015690520954
 30
0.0
 10
355.4405671787385
 20
311.1015690520954
 30
0.0
 10
354.1271062247612
 20
311.1015690520954
 30
0.0
 10
353.239592585466
 20
311.1015690520954
 30
0.0
 10
352.7958777464106
 20
311.1015690520954
 30
0.0
  0
SPLINE
  5
1D4
330
1F
100
AcDbEntity
  8
0
  6
Continuous
 62
     7
370
    25
100
AcDbSpline
210
0.0
220
0.0
230
1.0
 70
    24
 71
     3
 72
    11
 73
     7
 74
     0
 42
0.000000001
 43
0.00000001
 40
0.0
 40
0.0
 40
0.0
 40
0.0
 40
0.2477107112353972
 40
0.49536401420011
 40
0.7477051713699251
 40
1.0
 40
1.0
 40
1.0
 40
1.0
 10
347.5997236288263
 20
293.1015698269558
 30
0.0
 10
348.0199112577934
 20
293.1015698269558
 30
0.0
 10
348.8601891350166
 20
293.1015698269558
 30
0.0
 10
350.1511808631908
 20
293.1015698269558
 30
0.0
 10
351.4646442826544
 20
293.1015698269558
 30
0.0
 10
352.3521604182187
 20
293.1015698269558
 30
0.0
 10
352.7958777464106
 20
293.1015698269558
 30
0.0
  0
SPLINE
  5
1D5
330
1F
100
AcDbEntity
  8
0
  6
Continuous
 62
     7
370
    25
100
AcDbSpline
210
0.0
220
0.0
230
1.0
 70
     8
 71
     3
 72
    12
 73
     8
 74
     0
 42
0.000000001
 43
0.00000001
 40
0.0
 40
0.0
 40
0.0
 40
0.0
 40
0.2200723528885552
 40
0.4139128804121243
 40
0.6077754004746487
 40
0.8038771900024164
 40
0.9999999999999999
 40
0.9999999999999999
 40
0.9999999999999999
 40
0.9999999999999999
 10
345.0016465700342
 20
297.6015696332407
 30
0.0
 10
345.1951712053419
 20
297.2663739338963
 30
0.0
 10
345.5591530421314
 20
296.6359366454486
 30
0.0
 10
346.0908516986314
 20
295.7150033597109
 30
0.0
 10
346.5974037764529
 20
294.8376361451956
 30
0.0
 10
347.1011275373562
 20
293.9651536111736
 30
0.0
 10
347.4335189937244
 20
293.3894413730657
 30
0.0
 10
347.5997236288263
 20
293.1015698269558
 30
0.0
  0
SPLINE
  5
1D6
330
1F
100
AcDbEntity
  8
0
  6
Continuous
 62
     7
370
    25
100
AcDbSpline
210
0.0
220
0.0
230
1.0
 70
    24
 71
     3
 72
    12
 73
     8
 74
     0
 42
0.000000001
 43
0.00000001
 40
0.0
 40
0.0
 40
0.0
 40
0.0
 40
0.070055039907758
 40
0.3004245883947726
 40
0.5308303278911031
 40
0.7653934330824033
 40
1.0
 40
1.0
 40
1.0
 40
1.0
 10
352.7958777464106
 20
293.1015698269558
 30
0.0
 10
352.9190538679921
 20
293.1015698269558
 30
0.0
 10
353.4472833240734
 20
293.1015698269558
 30
0.0
 10
354.3798410820823
 20
293.1015698269558
 30
0.0
 10
355.5918499936513
 20
293.1015698269558
 30
0.0
 10
356.7984417619895
 20
293.1015698269558
 30
0.0
 10
357.5941389596932
 20
293.1015698269558
 30
0.0
 10
357.9920244134142
 20
293.1015698269558
 30
0.0
  0
SPLINE
  5
1D7
330
1F
100
AcDbEntity
  8
0
  6
Continuous
 62
     7
370
    25
100
AcDbSpline
210
0.0
220
0.0
230
1.0
 70
     8
 71
     3
 72
    11
 73
     7
 74
     0
 42
0.000000001
 43
0.00000001
 40
0.0
 40
0.0
 40
0.0
 40
0.0
 40
0.2477110011499254
 40
0.4953651344855844
 40
0.7477051772100632
 40
0.9999999999999999
 40
0.9999999999999999
 40
0.9999999999999999
 40
0.9999999999999999
 10
357.9920244134142
 20
293.1015698269558
 30
0.0
 10
358.2021179607376
 20
293.4654635877785
 30
0.0
 10
358.6222568235301
 20
294.1931675691585
 30
0.0
 10
359.2677559810604
 20
295.3111971985757
 30
0.0
 10
359.9244852748112
 20
296.4486899947677
 30
0.0
 10
360.368242661325
 20
297.2172993785777
 30
0.0
 10
360.5901014722063
 20
297.6015696332407
 30
0.0
  0
SPLINE
  5
1D8
330
1F
100
AcDbEntity
  8
0
  6
Continuous
 62
     7
370
    25
100
AcDbSpline
210
0.0
220
0.0
230
1.0
 70
    24
 71
     3
 72
    12
 73
     8
 74
     0
 42
0.000000001
 43
0.00000001
 40
0.0
 40
0.0
 40
0.0
 40
0.0
 40
0.070054943487027
 40
0.3004255846383956
 40
0.5308296073719082
 40
0.7653923897206821
 40
1.0
 40
1.0
 40
1.0
 40
1.0
 10
320.7958725012018
 20
311.1015690520954
 30
0.0
 10
320.672696380759
 20
311.1015690520954
 30
0.0
 10
320.1444644508537
 20
311.1015690520954
 30
0.0
 10
319.2119065764379
 20
311.1015690520954
 30
0.0
 10
317.9998978480346
 20
311.1015690520954
 30
0.0
 10
316.7933062569815
 20
311.1015690520954
 30
0.0
 10
315.997606350379
 20
311.1015690520954
 30
0.0
 10
315.5997183836175
 20
311.1015690520954
 30
0.0
  0
ARC
  5
1D9
330
1F
100
AcDbEntity
  8
0
  6
Continuous
 62
     7
370
    25
100
AcDbCircle
 10
320.7958745278
 20
302.1015694395
 30
0.0
 40
9.000000000000057
100
AcDbArc
 50
90.0
 51
150.0
  0
SPLINE
  5
1DA
330
1F
100
AcDbEntity
  8
0
  6
Continuous
 62
     7
370
    25
100
AcDbSpline
210
0.0
220
0.0
230
1.0
 70
     8
 71
     3
 72
    11
 73
     7
 74
     0
 42
0.000000001
 43
0.00000001
 40
0.0
 40
0.0
 40
0.0
 40
0.0
 40
0.2477103153935335
 40
0.4953651392352796
 40
0.7477051795846981
 40
1.0
 40
1.0
 40
1.0
 40
1.0
 10
315.5997183836176
 20
311.1015690520954
 30
0.0
 10
315.3896284641185
 20
310.7376746652932
 30
0.0
 10
314.9694956890287
 20
310.0099674105555
 30
0.0
 10
314.3239849396076
 20
308.8919440741394
 30
0.0
 10
313.6672581472245
 20
307.7544485452145
 30
0.0
 10
313.2235003440289
 20
306.9858393874572
 30
0.0
 10
313.0016413248255
 20
306.6015692458105
 30
0.0
  0
ARC
  5
1DB
330
1F
100
AcDbEntity
  8
0
  6
Continuous
 62
     7
370
    25
100
AcDbCircle
 10
320.7958745278
 20
302.1015694395
 30
0.0
 40
9.0
100
AcDbArc
 50
150.0
 51
210.0
  0
SPLINE
  5
1DC
330
1F
100
AcDbEntity
  8
0
  6
Continuous
 62
     7
370
    25
100
AcDbSpline
210
0.0
220
0.0
230
1.0
 70
     8
 71
     3
 72
    12
 73
     8
 74
     0
 42
0.000000001
 43
0.00000001
 40
0.0
 40
0.0
 40
0.0
 40
0.0
 40
0.1959924881296197
 40
0.3956257447630664
 40
0.5952317908464222
 40
0.7976245509469762
 40
1.0
 40
1.0
 40
1.0
 40
1.0
 10
310.4035642660334
 20
302.1015694395256
 30
0.0
 10
310.5696562883434
 20
301.8138895050976
 30
0.0
 10
310.9049256685768
 20
301.2331856761007
 30
0.0
 10
311.4165897306175
 20
300.3469742529994
 30
0.0
 10
311.9387346880943
 20
299.4425776808584
 30
0.0
 10
312.4677812477456
 20
298.5262680126503
 30
0.0
 10
312.8236930396542
 20
297.9097936379588
 30
0.0
 10
313.0016413248255
 20
297.6015696332407
 30
0.0
  0
SPLINE
  5
1DD
330
1F
100
AcDbEntity
  8
0
  6
Continuous
 62
     7
370
    25
100
AcDbSpline
210
0.0
220
0.0
230
1.0
 70
     8
 71
     3
 72
    12
 73
     8
 74
     0
 42
0.000000001
 43
0.00000001
 40
0.0
 40
0.0
 40
0.0
 40
0.0
 40
0.070054972905915
 40
0.3004250788404532
 40
0.5308299174963818
 40
0.7653925629309009
 40
1.0
 40
1.0
 40
1.0
 40
1.0
 10
313.0016413248255
 20
306.6015692458105
 30
0.0
 10
312.9400562318457
 20
306.4948938606962
 30
0.0
 10
312.6759535472484
 20
306.0374251093151
 30
0.0
 10
312.2096498617634
 20
305.2298203107432
 30
0.0
 10
311.6036574813992
 20
304.1801829594333
 30
0.0
 10
311.0003575860337
 20
303.135245804364
 30
0.0
 10
310.6025080335897
 20
302.4461501571093
 30
0.0
 10
310.4035642660333
 20
302.1015694395256
 30
0.0
  0
ARC
  5
1DE
330
1F
100
AcDbEntity
  8
0
  6
Continuous
 62
     7
370
    25
100
AcDbCircle
 10
320.7958745278
 20
302.1015694395
 30
0.0
 40
9.0
100
AcDbArc
 50
270.0
 51
330.0
  0
ARC
  5
1DF
330
1F
100
AcDbEntity
  8
0
  6
Continuous
 62
     7
370
    25
100
AcDbCircle
 10
320.7958745278
 20
302.1015694395
 30
0.0
 40
9.0
100
AcDbArc
 50
210.0
 51
270.0
  0
ARC
  5
1E0
330
1F
100
AcDbEntity
  8
0
  6
Continuous
 62
     7
370
    25
100
AcDbCircle
 10
320.7958745278
 20
302.1015694395
 30
0.0
 40
9.000000000000057
100
AcDbArc
 50
30.0
 51
90.0
  0
ARC
  5
1E1
330
1F
100
AcDbEntity
  8
0
  6
Continuous
 62
     7
370
    25
100
AcDbCircle
 10
320.7958745278
 20
302.1015694395
 30
0.0
 40
9.0
100
AcDbArc
 50
330.0
 51
30.0
  0
SPLINE
  5
1E2
330
1F
100
AcDbEntity
  8
0
  6
Continuous
 62
     7
370
    25
100
AcDbSpline
210
0.0
220
0.0
230
1.0
 70
     8
 71
     3
 72
    12
 73
     8
 74
     0
 42
0.000000001
 43
0.00000001
 40
0.0
 40
0.0
 40
0.0
 40
0.0
 40
0.199457377257596
 40
0.3989290997243083
 40
0.6014544270224936
 40
0.8040076961315269
 40
1.0
 40
1.0
 40
1.0
 40
1.0
 10
328.5901036775782
 20
306.6015692458105
 30
0.0
 10
328.4147173609905
 20
306.9053453709807
 30
0.0
 10
328.0639321138249
 20
307.5129194692572
 30
0.0
 10
327.5373931433238
 20
308.4249211093841
 30
0.0
 10
327.0125862334862
 20
309.3339039127357
 30
0.0
 10
326.495866167415
 20
310.2288986063979
 30
0.0
 10
326.1581197774587
 20
310.8138889936313
 30
0.0
 10
325.992026618786
 20
311.1015690520954
 30
0.0
  0
SPLINE
  5
1E3
330
1F
100
AcDbEntity
  8
0
  6
Continuous
 62
     7
370
    25
100
AcDbSpline
210
0.0
220
0.0
230
1.0
 70
    24
 71
     3
 72
    11
 73
     7
 74
     0
 42
0.000000001
 43
0.00000001
 40
0.0
 40
0.0
 40
0.0
 40
0.0
 40
0.2477107152317909
 40
0.495365407855924
 40
0.7477051672995744
 40
1.0
 40
1.0
 40
1.0
 40
1.0
 10
325.992026618786
 20
311.1015690520954
 30
0.0
 10
325.5718390203073
 20
311.1015690520954
 30
0.0
 10
324.7315588535746
 20
311.1015690520954
 30
0.0
 10
323.4405666297625
 20
311.1015690520954
 30
0.0
 10
322.1271035720778
 20
311.1015690520954
 30
0.0
 10
321.2395898535577
 20
311.1015690520954
 30
0.0
 10
320.7958725012018
 20
311.1015690520954
 30
0.0
  0
SPLINE
  5
1E4
330
1F
100
AcDbEntity
  8
0
  6
Continuous
 62
     7
370
    25
100
AcDbSpline
210
0.0
220
0.0
230
1.0
 70
    24
 71
     3
 72
    11
 73
     7
 74
     0
 42
0.000000001
 43
0.00000001
 40
0.0
 40
0.0
 40
0.0
 40
0.0
 40
0.2477107152317909
 40
0.495365407855924
 40
0.7477051672995744
 40
1.0
 40
1.0
 40
1.0
 40
1.0
 10
315.5997183836176
 20
293.1015698269558
 30
0.0
 10
316.0199059820964
 20
293.1015698269558
 30
0.0
 10
316.8601861488291
 20
293.1015698269558
 30
0.0
 10
318.1511783726412
 20
293.1015698269558
 30
0.0
 10
319.4646414303259
 20
293.1015698269558
 30
0.0
 10
320.352155148846
 20
293.1015698269558
 30
0.0
 10
320.7958725012018
 20
293.1015698269558
 30
0.0
  0
SPLINE
  5
1E5
330
1F
100
AcDbEntity
  8
0
  6
Continuous
 62
     7
370
    25
100
AcDbSpline
210
0.0
220
0.0
230
1.0
 70
     8
 71
     3
 72
    12
 73
     8
 74
     0
 42
0.000000001
 43
0.00000001
 40
0.0
 40
0.0
 40
0.0
 40
0.0
 40
0.2200723500170037
 40
0.4139135773537575
 40
0.6077753980445431
 40
0.8038778749032113
 40
1.0
 40
1.0
 40
1.0
 40
1.0
 10
313.0016413248255
 20
297.6015696332407
 30
0.0
 10
313.1951649272285
 20
297.2663733519289
 30
0.0
 10
313.5591454389414
 20
296.6359338991639
 30
0.0
 10
314.0908573384477
 20
295.715008074609
 30
0.0
 10
314.5973947065402
 20
294.8376313084898
 30
0.0
 10
315.101132686957
 20
293.9651578618875
 30
0.0
 10
315.4335176011949
 20
293.3894421186358
 30
0.0
 10
315.5997183836176
 20
293.1015698269558
 30
0.0
  0
SPLINE
  5
1E6
330
1F
100
AcDbEntity
  8
0
  6
Continuous
 62
     7
370
    25
100
AcDbSpline
210
0.0
220
0.0
230
1.0
 70
     8
 71
     3
 72
    12
 73
     8
 74
     0
 42
0.000000001
 43
0.00000001
 40
0.0
 40
0.0
 40
0.0
 40
0.0
 40
0.0700556789828429
 40
0.3004250797446673
 40
0.5308299181027911
 40
0.7653925632341317
 40
1.0
 40
1.0
 40
1.0
 40
1.0
 10
328.5901036775782
 20
297.6015696332407
 30
0.0
 10
328.6516915896136
 20
297.7082448251646
 30
0.0
 10
328.9158037023388
 20
298.165708138715
 30
0.0
 10
329.382091344635
 20
298.9733221744915
 30
0.0
 10
329.9880887208801
 20
300.0229552279969
 30
0.0
 10
330.5913871141018
 20
301.0678932489179
 30
0.0
 10
330.9892368680515
 20
301.7569887800225
 30
0.0
 10
331.1881807363703
 20
302.1015694395256
 30
0.0
  0
SPLINE
  5
1E7
330
1F
100
AcDbEntity
  8
0
  6
Continuous
 62
     7
370
    25
100
AcDbSpline
210
0.0
220
0.0
230
1.0
 70
     8
 71
     3
 72
    12
 73
     8
 74
     0
 42
0.000000001
 43
0.00000001
 40
0.0
 40
0.0
 40
0.0
 40
0.0
 40
0.1940125030781411
 40
0.3880044741106576
 40
0.5839769773131703
 40
0.7799275590324523
 40
1.0
 40
1.0
 40
1.0
 40
1.0
 10
331.1881807363703
 20
302.1015694395256
 30
0.0
 10
331.0237711509534
 20
302.3863327450459
 30
0.0
 10
330.6949693793339
 20
302.9558292200226
 30
0.0
 10
330.1931472535899
 20
303.8250048919352
 30
0.0
 10
329.6848514597445
 20
304.705422003434
 30
0.0
 10
329.1494628175867
 20
305.6327221773237
 30
0.0
 10
328.7836273518581
 20
306.2663734277784
 30
0.0
 10
328.5901036775782
 20
306.6015692458105
 30
0.0
  0
SPLINE
  5
1E8
330
1F
100
AcDbEntity
  8
0
  6
Continuous
 62
     7
370
    25
100
AcDbSpline
210
0.0
220
0.0
230
1.0
 70
     8
 71
     3
 72
    11
 73
     7
 74
     0
 42
0.000000001
 43
0.00000001
 40
0.0
 40
0.0
 40
0.0
 40
0.0
 40
0.2477110011499254
 40
0.4953651344855844
 40
0.7477051772100632
 40
0.9999999999999999
 40
0.9999999999999999
 40
0.9999999999999999
 40
0.9999999999999999
 10
325.992026618786
 20
293.1015698269558
 30
0.0
 10
326.2021201661094
 20
293.4654635877785
 30
0.0
 10
326.622259028902
 20
294.1931675691585
 30
0.0
 10
327.2677581864323
 20
295.3111971985757
 30
0.0
 10
327.924487480183
 20
296.4486899947677
 30
0.0
 10
328.3682448666969
 20
297.2172993785777
 30
0.0
 10
328.5901036775782
 20
297.6015696332407
 30
0.0
  0
SPLINE
  5
1E9
330
1F
100
AcDbEntity
  8
0
  6
Continuous
 62
     7
370
    25
100
AcDbSpline
210
0.0
220
0.0
230
1.0
 70
    24
 71
     3
 72
    12
 73
     8
 74
     0
 42
0.000000001
 43
0.00000001
 40
0.0
 40
0.0
 40
0.0
 40
0.0
 40
0.070054943487027
 40
0.3004255846383956
 40
0.5308296073719082
 40
0.7653923897206821
 40
1.0
 40
1.0
 40
1.0
 40
1.0
 10
320.7958725012018
 20
293.1015698269558
 30
0.0
 10
320.9190486216448
 20
293.1015698269558
 30
0.0
 10
321.44728055155
 20
293.1015698269558
 30
0.0
 10
322.3798384259658
 20
293.1015698269558
 30
0.0
 10
323.5918471543691
 20
293.1015698269558
 30
0.0
 10
324.7984387454222
 20
293.1015698269558
 30
0.0
 10
325.5941386520246
 20
293.1015698269558
 30
0.0
 10
325.992026618786
 20
293.1015698269558
 30
0.0
  0
ARC
  5
1EA
330
1F
100
AcDbEntity
  8
0
  6
Continuous
 62
     7
370
    25
100
AcDbCircle
 10
472.7958745278
 20
302.1015694395
 30
0.0
 40
9.00000000000005
100
AcDbArc
 50
270.0
 51
330.0
  0
ARC
  5
1EB
330
1F
100
AcDbEntity
  8
0
  6
Continuous
 62
     7
370
    25
100
AcDbCircle
 10
472.7958745278
 20
302.1015694395
 30
0.0
 40
9.0
100
AcDbArc
 50
210.0
 51
270.0
  0
ARC
  5
1EC
330
1F
100
AcDbEntity
  8
0
  6
Continuous
 62
     7
370
    25
100
AcDbCircle
 10
472.7958745278
 20
302.1015694395
 30
0.0
 40
9.0
100
AcDbArc
 50
150.0
 51
210.0
  0
ARC
  5
1ED
330
1F
100
AcDbEntity
  8
0
  6
Continuous
 62
     7
370
    25
100
AcDbCircle
 10
472.7958745278
 20
302.1015694395
 30
0.0
 40
9.0
100
AcDbArc
 50
90.0
 51
150.0
  0
ARC
  5
1EE
330
1F
100
AcDbEntity
  8
0
  6
Continuous
 62
     7
370
    25
100
AcDbCircle
 10
472.7958745278
 20
302.1015694395
 30
0.0
 40
9.0
100
AcDbArc
 50
30.0
 51
90.0
  0
ARC
  5
1EF
330
1F
100
AcDbEntity
  8
0
  6
Continuous
 62
     7
370
    25
100
AcDbCircle
 10
472.7958745278
 20
302.1015694395
 30
0.0
 40
9.00000000000005
100
AcDbArc
 50
330.0
 51
30.0
  0
SPLINE
  5
1F0
330
1F
100
AcDbEntity
  8
0
  6
Continuous
 62
     7
370
    25
100
AcDbSpline
210
0.0
220
0.0
230
1.0
 70
     8
 71
     3
 72
    12
 73
     8
 74
     0
 42
0.000000001
 43
0.00000001
 40
0.0
 40
0.0
 40
0.0
 40
0.0
 40
0.1994570593950906
 40
0.3989291682886322
 40
0.6014541825799427
 40
0.8040078322822456
 40
1.0
 40
1.0
 40
1.0
 40
1.0
 10
480.5901025152876
 20
306.6015692458105
 30
0.0
 10
480.4147181153168
 20
306.9053457541667
 30
0.0
 10
480.0639360822149
 20
307.5129216915223
 30
0.0
 10
479.5373900597759
 20
308.4249186296293
 30
0.0
 10
479.0125906855866
 20
309.3339063243731
 30
0.0
 10
478.4958637930227
 20
310.2288969478942
 30
0.0
 10
478.1581193185753
 20
310.813888699141
 30
0.0
 10
477.9920273191406
 20
311.1015690520954
 30
0.0
  0
SPLINE
  5
1F1
330
1F
100
AcDbEntity
  8
0
  6
Continuous
 62
     7
370
    25
100
AcDbSpline
210
0.0
220
0.0
230
1.0
 70
    24
 71
     3
 72
    11
 73
     7
 74
     0
 42
0.000000001
 43
0.00000001
 40
0.0
 40
0.0
 40
0.0
 40
0.0
 40
0.247711144507335
 40
0.495365231840607
 40
0.7477054309311695
 40
1.0
 40
1.0
 40
1.0
 40
1.0
 10
477.9920273191406
 20
311.1015690520954
 30
0.0
 10
477.5718390771466
 20
311.1015690520954
 30
0.0
 10
476.7315593782821
 20
311.1015690520954
 30
0.0
 10
475.4405674513162
 20
311.1015690520954
 30
0.0
 10
474.1271054775153
 20
311.1015690520954
 30
0.0
 10
473.2395917850889
 20
311.1015690520954
 30
0.0
 10
472.7958750642015
 20
311.1015690520954
 30
0.0
  0
SPLINE
  5
1F2
330
1F
100
AcDbEntity
  8
0
  6
Continuous
 62
     7
370
    25
100
AcDbSpline
210
0.0
220
0.0
230
1.0
 70
     8
 71
     3
 72
    11
 73
     7
 74
     0
 42
0.000000001
 43
0.00000001
 40
0.0
 40
0.0
 40
0.0
 40
0.0
 40
0.2477111725895138
 40
0.4953651332991295
 40
0.747705176616889
 40
1.0
 40
1.0
 40
1.0
 40
1.0
 10
467.5997228092625
 20
311.1015690520954
 30
0.0
 10
467.3896283549811
 20
310.7376754477685
 30
0.0
 10
466.9694879702641
 20
310.009972284727
 30
0.0
 10
466.3239917107095
 20
308.8919410820619
 30
0.0
 10
465.667261791614
 20
307.7544489690507
 30
0.0
 10
465.2235045092709
 20
306.9858395287275
 30
0.0
 10
465.0016457504703
 20
306.6015692458105
 30
0.0
  0
SPLINE
  5
1F3
330
1F
100
AcDbEntity
  8
0
  6
Continuous
 62
     7
370
    25
100
AcDbSpline
210
0.0
220
0.0
230
1.0
 70
    24
 71
     3
 72
    12
 73
     8
 74
     0
 42
0.000000001
 43
0.00000001
 40
0.0
 40
0.0
 40
0.0
 40
0.0
 40
0.070056026637292
 40
0.3004249841209684
 40
0.5308301350996474
 40
0.76539265134135
 40
1.0
 40
1.0
 40
1.0
 40
1.0
 10
472.7958750642015
 20
311.1015690520954
 30
0.0
 10
472.6726970795726
 20
311.1015690520954
 30
0.0
 10
472.1444663783399
 20
311.1015690520954
 30
0.0
 10
471.2119080063773
 20
311.1015690520954
 30
0.0
 10
469.9999009083296
 20
311.1015690520954
 30
0.0
 10
468.7933088186526
 20
311.1015690520954
 30
0.0
 10
467.9976101572245
 20
311.1015690520954
 30
0.0
 10
467.5997228092625
 20
311.1015690520954
 30
0.0
  0
SPLINE
  5
1F4
330
1F
100
AcDbEntity
  8
0
  6
Continuous
 62
     7
370
    25
100
AcDbSpline
210
0.0
220
0.0
230
1.0
 70
     8
 71
     3
 72
    12
 73
     8
 74
     0
 42
0.000000001
 43
0.00000001
 40
0.0
 40
0.0
 40
0.0
 40
0.0
 40
0.0700558615757243
 40
0.3004249297894578
 40
0.5308299629925907
 40
0.7653926283728971
 40
1.0
 40
1.0
 40
1.0
 40
1.0
 10
465.0016457504703
 20
306.6015692458105
 30
0.0
 10
464.9400571042044
 20
306.4948941190247
 30
0.0
 10
464.675942663041
 20
306.0374325054767
 30
0.0
 10
464.2096616814728
 20
305.2298146480047
 30
0.0
 10
463.6036599254467
 20
304.1801844467227
 30
0.0
 10
463.0003624436211
 20
303.1352457169884
 30
0.0
 10
462.6025131999527
 20
302.4461500861811
 30
0.0
 10
462.4035696230008
 20
302.1015694395256
 30
0.0
  0
SPLINE
  5
1F5
330
1F
100
AcDbEntity
  8
0
  6
Continuous
 62
     7
370
    25
100
AcDbSpline
210
0.0
220
0.0
230
1.0
 70
     8
 71
     3
 72
    12
 73
     8
 74
     0
 42
0.000000001
 43
0.00000001
 40
0.0
 40
0.0
 40
0.0
 40
0.0
 40
0.1959924171963839
 40
0.3956251709864722
 40
0.5952314059519934
 40
0.7976236538776811
 40
0.9999999999999999
 40
0.9999999999999999
 40
0.9999999999999999
 40
0.9999999999999999
 10
462.4035696230008
 20
302.1015694395256
 30
0.0
 10
462.5696618242523
 20
301.8138897744292
 30
0.0
 10
462.9049312007902
 20
301.2331871211267
 30
0.0
 10
463.4165866523454
 20
300.3469718285746
 30
0.0
 10
463.9387376788638
 20
299.4425803773561
 30
0.0
 10
464.4677740601997
 20
298.5262638497904
 30
0.0
 10
464.8236931812785
 20
297.9097929658329
 30
0.0
 10
465.0016457504703
 20
297.6015696332407
 30
0.0
  0
SPLINE
  5
1F6
330
1F
100
AcDbEntity
  8
0
  6
Continuous
 62
     7
370
    25
100
AcDbSpline
210
0.0
220
0.0
230
1.0
 70
     8
 71
     3
 72
    12
 73
     8
 74
     0
 42
0.000000001
 43
0.00000001
 40
0.0
 40
0.0
 40
0.0
 40
0.0
 40
0.0700560320285839
 40
0.3004250802040829
 40
0.5308299184108964
 40
0.765392563388196
 40
1.0
 40
1.0
 40
1.0
 40
1.0
 10
480.5901025152876
 20
297.6015696332407
 30
0.0
 10
480.6516918368534
 20
297.7082447285661
 30
0.0
 10
480.9158086635611
 20
298.1657053231916
 30
0.0
 10
481.3820882843623
 20
298.9733239775786
 30
0.0
 10
481.9880881585223
 20
300.022954882186
 30
0.0
 10
482.5913858006784
 20
301.0678933360333
 30
0.0
 10
482.9892356553801
 20
301.7569888090628
 30
0.0
 10
483.1881795740797
 20
302.1015694395256
 30
0.0
  0
SPLINE
  5
1F7
330
1F
100
AcDbEntity
  8
0
  6
Continuous
 62
     7
370
    25
100
AcDbSpline
210
0.0
220
0.0
230
1.0
 70
     8
 71
     3
 72
    12
 73
     8
 74
     0
 42
0.000000001
 43
0.00000001
 40
0.0
 40
0.0
 40
0.0
 40
0.0
 40
0.1940121601962412
 40
0.3880041294976832
 40
0.5839769793197269
 40
0.779927208131188
 40
1.0
 40
1.0
 40
1.0
 40
1.0
 10
483.1881795740797
 20
302.1015694395256
 30
0.0
 10
483.0237713751239
 20
302.3863328197747
 30
0.0
 10
482.6949720872153
 20
302.9558299448754
 30
0.0
 10
482.1931506269017
 20
303.8250060418732
 30
0.0
 10
481.6848487815598
 20
304.7054197471612
 30
0.0
 10
481.1494667844765
 20
305.6327243979659
 30
0.0
 10
480.783628166555
 20
306.2663738454534
 30
0.0
 10
480.5901025152876
 20
306.6015692458105
 30
0.0
  0
SPLINE
  5
1F8
330
1F
100
AcDbEntity
  8
0
  6
Continuous
 62
     7
370
    25
100
AcDbSpline
210
0.0
220
0.0
230
1.0
 70
    24
 71
     3
 72
    11
 73
     7
 74
     0
 42
0.000000001
 43
0.00000001
 40
0.0
 40
0.0
 40
0.0
 40
0.0
 40
0.2477111429227029
 40
0.4953648822556089
 40
0.7477050797319267
 40
1.0
 40
1.0
 40
1.0
 40
1.0
 10
467.5997228092625
 20
293.1015698269558
 30
0.0
 10
468.0199110582326
 20
293.1015698269558
 30
0.0
 10
468.8601901834282
 20
293.1015698269558
 30
0.0
 10
470.151181391144
 20
293.1015698269558
 30
0.0
 10
471.4646434116013
 20
293.1015698269558
 30
0.0
 10
472.3521577233849
 20
293.1015698269558
 30
0.0
 10
472.7958750642015
 20
293.1015698269558
 30
0.0
  0
SPLINE
  5
1F9
330
1F
100
AcDbEntity
  8
0
  6
Continuous
 62
     7
370
    25
100
AcDbSpline
210
0.0
220
0.0
230
1.0
 70
     8
 71
     3
 72
    12
 73
     8
 74
     0
 42
0.000000001
 43
0.00000001
 40
0.0
 40
0.0
 40
0.0
 40
0.0
 40
0.2200725273168421
 40
0.4139132286602563
 40
0.6077755727462613
 40
0.8038775329600891
 40
1.0
 40
1.0
 40
1.0
 40
1.0
 10
465.0016457504703
 20
297.6015696332407
 30
0.0
 10
465.1951708780769
 20
297.2663738627887
 30
0.0
 10
465.5591536585314
 20
296.6359364098607
 30
0.0
 10
466.0908554074355
 20
295.7150045049172
 30
0.0
 10
466.597403784274
 20
294.8376348957677
 30
0.0
 10
467.1011314101881
 20
293.9651551254105
 30
0.0
 10
467.433519883438
 20
293.3894416265268
 30
0.0
 10
467.5997228092625
 20
293.1015698269558
 30
0.0
  0
SPLINE
  5
1FA
330
1F
100
AcDbEntity
  8
0
  6
Continuous
 62
     7
370
    25
100
AcDbSpline
210
0.0
220
0.0
230
1.0
 70
    24
 71
     3
 72
    12
 73
     8
 74
     0
 42
0.000000001
 43
0.00000001
 40
0.0
 40
0.0
 40
0.0
 40
0.0
 40
0.0700556738620818
 40
0.3004249848237226
 40
0.5308297869359476
 40
0.7653926502780553
 40
1.0
 40
1.0
 40
1.0
 40
1.0
 10
472.7958750642015
 20
293.1015698269558
 30
0.0
 10
472.9190524274601
 20
293.1015698269558
 30
0.0
 10
473.4472831252394
 20
293.1015698269558
 30
0.0
 10
474.3798409169586
 20
293.1015698269558
 30
0.0
 10
475.5918485245311
 20
293.1015698269558
 30
0.0
 10
476.7984407481999
 20
293.1015698269558
 30
0.0
 10
477.5941399796188
 20
293.1015698269558
 30
0.0
 10
477.9920273191406
 20
293.1015698269558
 30
0.0
  0
SPLINE
  5
1FB
330
1F
100
AcDbEntity
  8
0
  6
Continuous
 62
     7
370
    25
100
AcDbSpline
210
0.0
220
0.0
230
1.0
 70
     8
 71
     3
 72
    11
 73
     7
 74
     0
 42
0.000000001
 43
0.00000001
 40
0.0
 40
0.0
 40
0.0
 40
0.0
 40
0.2477112154950593
 40
0.4953650458923566
 40
0.7477051329174187
 40
1.0
 40
1.0
 40
1.0
 40
1.0
 10
477.9920273191406
 20
293.1015698269558
 30
0.0
 10
478.2021219328207
 20
293.4654633432779
 30
0.0
 10
478.6222624893933
 20
294.1931660758834
 30
0.0
 10
479.2677561900981
 20
295.3111983406972
 30
0.0
 10
479.9244866041623
 20
296.4486898390134
 30
0.0
 10
480.3682437998239
 20
297.2172993266627
 30
0.0
 10
480.5901025152876
 20
297.6015696332407
 30
0.0
  0
LINE
  5
1FC
330
1F
100
AcDbEntity
  8
0
  6
Continuous
 62
     7
370
    25
100
AcDbLine
 10
681.9958773173
 20
310.1015698195
 30
0.0
 11
681.9958773173
 21
294.1015690595
 31
0.0
  0
LINE
  5
1FD
330
1F
100
AcDbEntity
  8
0
  6
Continuous
 62
     7
370
    25
100
AcDbLine
 10
680.3958800352
 20
310.1015698195
 30
0.0
 11
680.3958800352
 21
294.1015690595
 31
0.0
  0
CIRCLE
  5
1FE
330
1F
100
AcDbEntity
  8
0
  6
Continuous
 62
     7
370
    25
100
AcDbCircle
 10
504.7958745278
 20
302.1015694395
 30
0.0
 40
11.99999999999994
  0
CIRCLE
  5
1FF
330
1F
100
AcDbEntity
  8
0
  6
Continuous
 62
     7
370
    25
100
AcDbCircle
 10
352.7958745278
 20
302.1015694395
 30
0.0
 40
12.0
  0
CIRCLE
  5
200
330
1F
100
AcDbEntity
  8
0
  6
Continuous
 62
     7
370
    25
100
AcDbCircle
 10
320.7958745278
 20
302.1015694395
 30
0.0
 40
12.0
  0
CIRCLE
  5
201
330
1F
100
AcDbEntity
  8
0
  6
Continuous
 62
     7
370
    25
100
AcDbCircle
 10
472.7958745278
 20
302.1015694395
 30
0.0
 40
12.0
  0
LINE
  5
202
330
1F
100
AcDbEntity
  8
0
  6
Continuous
 62
     7
370
    25
100
AcDbLine
 10
682.5958725727
 20
302.1015694395
 30
0.0
 11
686.7153134859
 21
302.1015694395
 31
0.0
  0
SPLINE
  5
203
330
1F
100
AcDbEntity
  8
0
  6
Continuous
 62
     7
370
    25
100
AcDbSpline
210
0.0
220
0.0
230
1.0
 70
     8
 71
     3
 72
    11
 73
     7
 74
     0
 42
0.000000001
 43
0.00000001
 40
0.0
 40
0.0
 40
0.0
 40
0.0
 40
0.247711149968588
 40
0.4953655084820713
 40
0.7477053927906371
 40
1.0
 40
1.0
 40
1.0
 40
1.0
 10
686.7153134859278
 20
302.1015694395257
 30
0.0
 10
686.7984219185146
 20
301.8387571383371
 30
0.0
 10
686.964619729847
 20
301.3131927895779
 30
0.0
 10
687.1473949020918
 20
300.5057276781623
 30
0.0
 10
687.2716496276631
 20
299.6842050435937
 30
0.0
 10
687.2878021104358
 20
299.1290979943027
 30
0.0
 10
687.2958776272013
 20
298.8515693724704
 30
0.0
  0
SPLINE
  5
204
330
1F
100
AcDbEntity
  8
0
  6
Continuous
 62
     7
370
    25
100
AcDbSpline
210
0.0
220
0.0
230
1.0
 70
     8
 71
     3
 72
    12
 73
     8
 74
     0
 42
0.000000001
 43
0.00000001
 40
0.0
 40
0.0
 40
0.0
 40
0.0
 40
0.0700426465774102
 40
0.3004146371676356
 40
0.5308231324893001
 40
0.7653884387182305
 40
1.0
 40
1.0
 40
1.0
 40
1.0
 10
687.2958776272013
 20
298.8515693724704
 30
0.0
 10
687.2952247485731
 20
298.7745406743128
 30
0.0
 10
687.2924245360483
 20
298.4441626897672
 30
0.0
 10
687.2484577025074
 20
297.8608888508803
 30
0.0
 10
687.1285291591231
 20
297.102815688385
 30
0.0
 10
686.9518497491731
 20
296.34812100037
 30
0.0
 10
686.7941640889634
 20
295.8504362255937
 30
0.0
 10
686.7153134859278
 20
295.6015693054151
 30
0.0
  0
LINE
  5
205
330
1F
100
AcDbEntity
  8
0
  6
Continuous
 62
     7
370
    25
100
AcDbLine
 10
682.5958725727
 20
295.6015693054
 30
0.0
 11
686.7153134859
 21
295.6015693054
 31
0.0
  0
LINE
  5
206
330
1F
100
AcDbEntity
  8
0
  6
Continuous
 62
     7
370
    25
100
AcDbLine
 10
682.5958725727
 20
295.6015693054
 30
0.0
 11
682.5958725727
 21
298.8515693725
 31
0.0
  0
LINE
  5
207
330
1F
100
AcDbEntity
  8
0
  6
Continuous
 62
     7
370
    25
100
AcDbLine
 10
682.5958725727
 20
298.8515693725
 30
0.0
 11
682.5958725727
 21
302.1015694395
 31
0.0
  0
LINE
  5
208
330
1F
100
AcDbEntity
  8
0
  6
Continuous
 62
     7
370
    25
100
AcDbLine
 10
682.5958725727
 20
305.3515695066
 30
0.0
 11
682.5958725727
 21
308.6015695736
 31
0.0
  0
LINE
  5
209
330
1F
100
AcDbEntity
  8
0
  6
Continuous
 62
     7
370
    25
100
AcDbLine
 10
682.5958725727
 20
308.6015695736
 30
0.0
 11
686.7153134859
 21
308.6015695736
 31
0.0
  0
SPLINE
  5
20A
330
1F
100
AcDbEntity
  8
0
  6
Continuous
 62
     7
370
    25
100
AcDbSpline
210
0.0
220
0.0
230
1.0
 70
     8
 71
     3
 72
    11
 73
     7
 74
     0
 42
0.000000001
 43
0.00000001
 40
0.0
 40
0.0
 40
0.0
 40
0.0
 40
0.2477112864667995
 40
0.4953653869240247
 40
0.7477053320170671
 40
1.0
 40
1.0
 40
1.0
 40
1.0
 10
686.7153134859278
 20
308.601569573636
 30
0.0
 10
686.7984218898807
 20
308.3387572242794
 30
0.0
 10
686.9646195115878
 20
307.8131931977695
 30
0.0
 10
687.1473950545732
 20
307.0057272269615
 30
0.0
 10
687.2716496024722
 20
306.1842052377463
 30
0.0
 10
687.2878021020394
 20
305.629098148426
 30
0.0
 10
687.2958776272013
 20
305.3515695065808
 30
0.0
  0
SPLINE
  5
20B
330
1F
100
AcDbEntity
  8
0
  6
Continuous
 62
     7
370
    25
100
AcDbSpline
210
0.0
220
0.0
230
1.0
 70
     8
 71
     3
 72
    12
 73
     8
 74
     0
 42
0.000000001
 43
0.00000001
 40
0.0
 40
0.0
 40
0.0
 40
0.0
 40
0.0700429271448847
 40
0.3004148624593776
 40
0.5308230340271068
 40
0.7653882969409702
 40
1.0
 40
1.0
 40
1.0
 40
1.0
 10
687.2958776272013
 20
305.3515695065808
 30
0.0
 10
687.2952247514413
 20
305.2745407599958
 30
0.0
 10
687.2924245603352
 20
304.9441636433612
 30
0.0
 10
687.2484577801456
 20
304.3608890347408
 30
0.0
 10
687.1285290557239
 20
303.6028152552695
 30
0.0
 10
686.9518496619314
 20
302.8481205919184
 30
0.0
 10
686.794164080615
 20
302.350436244279
 30
0.0
 10
686.7153134859278
 20
302.1015694395257
 30
0.0
  0
LINE
  5
20C
330
1F
100
AcDbEntity
  8
0
  6
Continuous
 62
     7
370
    25
100
AcDbLine
 10
682.5958725727
 20
302.1015694395
 30
0.0
 11
682.5958725727
 21
305.3515695066
 31
0.0
  0
LINE
  5
20D
330
1F
100
AcDbEntity
  8
0
  6
Continuous
 62
     7
370
    25
100
AcDbLine
 10
687.2958776272
 20
298.8515693725
 30
0.0
 11
687.2958776272
 21
305.3515695066
 31
0.0
  0
SPLINE
  5
20E
330
1F
100
AcDbEntity
  8
0
  6
Continuous
 62
     7
370
    25
100
AcDbSpline
210
0.0
220
0.0
230
1.0
 70
    24
 71
     3
 72
    11
 73
     7
 74
     0
 42
0.000000001
 43
0.00000001
 40
0.0
 40
0.0
 40
0.0
 40
0.0
 40
0.3773847153605694
 40
0.5679116479626443
 40
0.7584170335250283
 40
0.9999999999999999
 40
0.9999999999999999
 40
0.9999999999999999
 40
0.9999999999999999
 10
686.7153134859278
 20
295.6015693054151
 30
0.0
 10
686.8391413667885
 20
295.6015693054151
 30
0.0
 10
687.0254851507865
 20
295.6015693054151
 30
0.0
 10
687.1838990829589
 20
295.6015693054151
 30
0.0
 10
687.2760115306966
 20
295.6015693054151
 30
0.0
 10
687.2887535143083
 20
295.6015693054151
 30
0.0
 10
687.2958776272013
 20
295.6015693054151
 30
0.0
  0
LINE
  5
20F
330
1F
100
AcDbEntity
  8
0
  6
Continuous
 62
     7
370
    25
100
AcDbLine
 10
687.2958776272
 20
295.6015693054
 30
0.0
 11
687.2958776272
 21
298.8515693725
 31
0.0
  0
SPLINE
  5
210
330
1F
100
AcDbEntity
  8
0
  6
Continuous
 62
     7
370
    25
100
AcDbSpline
210
0.0
220
0.0
230
1.0
 70
    24
 71
     3
 72
    11
 73
     7
 74
     0
 42
0.000000001
 43
0.00000001
 40
0.0
 40
0.0
 40
0.0
 40
0.0
 40
0.2415835790204421
 40
0.4301764213075098
 40
0.618788059248107
 40
0.9999999999999999
 40
0.9999999999999999
 40
0.9999999999999999
 40
0.9999999999999999
 10
687.2958776272013
 20
308.601569573636
 30
0.0
 10
687.2887598597865
 20
308.601569573636
 30
0.0
 10
687.2760855889334
 20
308.601569573636
 30
0.0
 10
687.1847935395019
 20
308.601569573636
 30
0.0
 10
687.0271820218564
 20
308.601569573636
 30
0.0
 10
686.8403224970637
 20
308.601569573636
 30
0.0
 10
686.7153134859278
 20
308.601569573636
 30
0.0
  0
LINE
  5
211
330
1F
100
AcDbEntity
  8
0
  6
Continuous
 62
     7
370
    25
100
AcDbLine
 10
687.2958776272
 20
308.6015695736
 30
0.0
 11
687.2958776272
 21
305.3515695066
 31
0.0
  0
LINE
  5
212
330
1F
100
AcDbEntity
  8
0
  6
Continuous
 62
     7
370
    25
100
AcDbLine
 10
669.9958678997
 20
305.4110693776
 30
0.0
 11
669.9958678997
 21
298.7920695015
 31
0.0
  0
LINE
  5
213
330
1F
100
AcDbEntity
  8
0
  6
Continuous
 62
     7
370
    25
100
AcDbLine
 10
670.6863728083
 20
306.1015696295
 30
0.0
 11
670.6863728083
 21
298.1015692495
 31
0.0
  0
ARC
  5
214
330
1F
100
AcDbEntity
  8
0
  6
Continuous
 62
     7
370
    25
100
AcDbCircle
 10
221.7958745278
 20
274.1015694395
 30
0.0
 40
3.499999999999978
100
AcDbArc
 50
241.601549599
 51
28.398450401
  0
SPLINE
  5
215
330
1F
100
AcDbEntity
  8
0
  6
Continuous
 62
     7
370
    25
100
AcDbSpline
210
0.0
220
0.0
230
1.0
 70
     8
 71
     3
 72
    13
 73
     9
 74
     0
 42
0.000000001
 43
0.00000001
 40
0.0
 40
0.0
 40
0.0
 40
0.0
 40
0.0444302961570145
 40
0.2636385870332191
 40
0.4828847311492082
 40
0.7799282185164196
 40
0.9813483914489719
 40
1.0
 40
1.0
 40
1.0
 40
1.0
 10
224.8746839082911
 20
275.7661717042875
 30
0.0
 10
224.8047298048079
 20
275.6962183057142
 30
0.0
 10
224.3896391438251
 20
275.2811318274951
 30
0.0
 10
223.6261054176129
 20
274.5175895055197
 30
0.0
 10
222.461208292558
 20
273.3526791680128
 30
0.0
 10
221.3240994466063
 20
272.2155909396038
 30
0.0
 10
220.5070147188998
 20
271.3984968006526
 30
0.0
 10
220.1606288039917
 20
271.0521110021842
 30
0.0
 10
220.1312717712595
 20
271.0227539793205
 30
0.0
  0
ARC
  5
216
330
1F
100
AcDbEntity
  8
0
  6
Continuous
 62
     7
370
    25
100
AcDbCircle
 10
221.7958745278
 20
274.1015694395
 30
0.0
 40
3.500000000000004
100
AcDbArc
 50
61.6015495991
 51
208.398450401
  0
SPLINE
  5
217
330
1F
100
AcDbEntity
  8
0
  6
Continuous
 62
     7
370
    25
100
AcDbSpline
210
0.0
220
0.0
230
1.0
 70
     8
 71
     3
 72
    13
 73
     9
 74
     0
 42
0.000000001
 43
0.00000001
 40
0.0
 40
0.0
 40
0.0
 40
0.0
 40
0.0444288293840525
 40
0.2134006661415484
 40
0.3823913620506492
 40
0.5512158056257317
 40
0.7756360451783693
 40
1.0
 40
1.0
 40
1.0
 40
1.0
 10
218.7170621669962
 20
272.4369673088741
 30
0.0
 10
218.7870157249107
 20
272.5069200902907
 30
0.0
 10
219.1230168319596
 20
272.8429174676628
 30
0.0
 10
219.7272442183175
 20
273.4471574705198
 30
0.0
 10
220.5295370426159
 20
274.2494407143185
 30
0.0
 10
221.42012613401
 20
275.1400413637079
 30
0.0
 10
222.3987269734941
 20
276.1186421657589
 30
0.0
 10
223.1065881195609
 20
276.8265003367337
 30
0.0
 10
223.4604743040278
 20
277.1803850338411
 30
0.0
  0
ARC
  5
218
330
1F
100
AcDbEntity
  8
0
  6
Continuous
 62
     7
370
    25
100
AcDbCircle
 10
221.7958745278
 20
274.1015694395
 30
0.0
 40
3.500000000000004
100
AcDbArc
 50
28.398450401
 51
61.601549599
  0
ARC
  5
219
330
1F
100
AcDbEntity
  8
0
  6
Continuous
 62
     7
370
    25
100
AcDbCircle
 10
221.7958745278
 20
274.1015694395
 30
0.0
 40
3.500000000000004
100
AcDbArc
 50
208.398450401
 51
241.601549599
  0
ARC
  5
21A
330
1F
100
AcDbEntity
  8
0
  6
Continuous
 62
     7
370
    25
100
AcDbCircle
 10
221.7958745278
 20
330.1015694395
 30
0.0
 40
3.500000000000004
100
AcDbArc
 50
241.601549599
 51
28.398450401
  0
SPLINE
  5
21B
330
1F
100
AcDbEntity
  8
0
  6
Continuous
 62
     7
370
    25
100
AcDbSpline
210
0.0
220
0.0
230
1.0
 70
     8
 71
     3
 72
    13
 73
     9
 74
     0
 42
0.000000001
 43
0.00000001
 40
0.0
 40
0.0
 40
0.0
 40
0.0
 40
0.0444302961570145
 40
0.2636385870332191
 40
0.4828847311492082
 40
0.7799282185164196
 40
0.9813483914489719
 40
1.0
 40
1.0
 40
1.0
 40
1.0
 10
224.8746839082911
 20
331.7661715701771
 30
0.0
 10
224.8047298048079
 20
331.6962181716038
 30
0.0
 10
224.3896391438251
 20
331.2811316933847
 30
0.0
 10
223.6261054176129
 20
330.5175893714093
 30
0.0
 10
222.461208292558
 20
329.3526790339023
 30
0.0
 10
221.3240994466063
 20
328.2155908054933
 30
0.0
 10
220.5070147188998
 20
327.3984966665421
 30
0.0
 10
220.1606288039917
 20
327.0521108680738
 30
0.0
 10
220.1312717712595
 20
327.02275384521
 30
0.0
  0
ARC
  5
21C
330
1F
100
AcDbEntity
  8
0
  6
Continuous
 62
     7
370
    25
100
AcDbCircle
 10
221.7958745278
 20
330.1015694395
 30
0.0
 40
3.500000000000031
100
AcDbArc
 50
61.6015495991
 51
208.398450401
  0
SPLINE
  5
21D
330
1F
100
AcDbEntity
  8
0
  6
Continuous
 62
     7
370
    25
100
AcDbSpline
210
0.0
220
0.0
230
1.0
 70
     8
 71
     3
 72
    13
 73
     9
 74
     0
 42
0.000000001
 43
0.00000001
 40
0.0
 40
0.0
 40
0.0
 40
0.0
 40
0.0444288293840525
 40
0.2134006661415484
 40
0.3823913620506492
 40
0.5512158056257317
 40
0.7756360451783693
 40
1.0
 40
1.0
 40
1.0
 40
1.0
 10
218.7170621669962
 20
328.4369671747637
 30
0.0
 10
218.7870157249107
 20
328.5069199561802
 30
0.0
 10
219.1230168319596
 20
328.8429173335524
 30
0.0
 10
219.7272442183175
 20
329.4471573364093
 30
0.0
 10
220.5295370426159
 20
330.249440580208
 30
0.0
 10
221.42012613401
 20
331.1400412295974
 30
0.0
 10
222.3987269734941
 20
332.1186420316484
 30
0.0
 10
223.1065881195609
 20
332.8265002026233
 30
0.0
 10
223.4604743040278
 20
333.1803848997307
 30
0.0
  0
ARC
  5
21E
330
1F
100
AcDbEntity
  8
0
  6
Continuous
 62
     7
370
    25
100
AcDbCircle
 10
221.7958745278
 20
330.1015694395
 30
0.0
 40
3.499999999999953
100
AcDbArc
 50
28.398450401
 51
61.601549599
  0
ARC
  5
21F
330
1F
100
AcDbEntity
  8
0
  6
Continuous
 62
     7
370
    25
100
AcDbCircle
 10
221.7958745278
 20
330.1015694395
 30
0.0
 40
3.500000000000031
100
AcDbArc
 50
208.398450401
 51
241.601549599
  0
LINE
  5
220
330
1F
100
AcDbEntity
  8
0
  6
Continuous
 62
     7
370
    25
100
AcDbLine
 10
223.7958696402
 20
351.5015712038
 30
0.0
 11
223.7958696402
 21
350.1015698568
 31
0.0
  0
LINE
  5
221
330
1F
100
AcDbEntity
  8
0
  6
Continuous
 62
     7
370
    25
100
AcDbLine
 10
223.7958696402
 20
351.5015712038
 30
0.0
 11
253.7958708323
 21
351.5015712038
 31
0.0
  0
LINE
  5
222
330
1F
100
AcDbEntity
  8
0
  6
Continuous
 62
     7
370
    25
100
AcDbLine
 10
253.7958708323
 20
351.5015712038
 30
0.0
 11
253.7958708323
 21
350.1015698568
 31
0.0
  0
LINE
  5
223
330
1F
100
AcDbEntity
  8
0
  6
Continuous
 62
     7
370
    25
100
AcDbLine
 10
226.0958787716
 20
356.2015688077
 30
0.0
 11
251.495876602
 21
356.2015688077
 31
0.0
  0
LINE
  5
224
330
1F
100
AcDbEntity
  8
0
  6
Continuous
 62
     7
370
    25
100
AcDbLine
 10
253.7958708323
 20
252.7015676752
 30
0.0
 11
253.7958708323
 21
254.1015690223
 31
0.0
  0
LINE
  5
225
330
1F
100
AcDbEntity
  8
0
  6
Continuous
 62
     7
370
    25
100
AcDbLine
 10
253.7958708323
 20
252.7015676752
 30
0.0
 11
223.7958696402
 21
252.7015676752
 31
0.0
  0
LINE
  5
226
330
1F
100
AcDbEntity
  8
0
  6
Continuous
 62
     7
370
    25
100
AcDbLine
 10
223.7958696402
 20
252.7015676752
 30
0.0
 11
223.7958696402
 21
254.1015690223
 31
0.0
  0
LINE
  5
227
330
1F
100
AcDbEntity
  8
0
  6
Continuous
 62
     7
370
    25
100
AcDbLine
 10
251.495876602
 20
248.0015700713
 30
0.0
 11
226.0958787716
 21
248.0015700713
 31
0.0
  0
LINE
  5
228
330
1F
100
AcDbEntity
  8
0
  6
Continuous
 62
     7
370
    25
100
AcDbLine
 10
215.395876459
 20
287.1015697748
 30
0.0
 11
216.7958703554
 21
287.1015697748
 31
0.0
  0
LINE
  5
229
330
1F
100
AcDbEntity
  8
0
  6
Continuous
 62
     7
370
    25
100
AcDbLine
 10
215.395876459
 20
317.1015691042
 30
0.0
 11
216.7958703554
 21
317.1015691042
 31
0.0
  0
LINE
  5
22A
330
1F
100
AcDbEntity
  8
0
  6
Continuous
 62
     7
370
    25
100
AcDbLine
 10
215.395876459
 20
287.1015697748
 30
0.0
 11
215.395876459
 21
317.1015691042
 31
0.0
  0
LINE
  5
22B
330
1F
100
AcDbEntity
  8
0
  6
Continuous
 62
     7
370
    25
100
AcDbLine
 10
210.6958714045
 20
289.401569593
 30
0.0
 11
210.6958714045
 21
314.801569286
 31
0.0
  0
LINE
  5
22C
330
1F
100
AcDbEntity
  8
0
  6
Continuous
 62
     7
370
    25
100
AcDbLine
 10
226.7958757199
 20
280.1015695587
 30
0.0
 11
216.7958703554
 21
280.1015695587
 31
0.0
  0
LINE
  5
22D
330
1F
100
AcDbEntity
  8
0
  6
Continuous
 62
     7
370
    25
100
AcDbLine
 10
216.7958703554
 20
280.1015695587
 30
0.0
 11
216.7958703554
 21
324.1015693203
 31
0.0
  0
LINE
  5
22E
330
1F
100
AcDbEntity
  8
0
  6
Continuous
 62
     7
370
    25
100
AcDbLine
 10
216.7958703554
 20
324.1015693203
 30
0.0
 11
226.7958757199
 21
324.1015693203
 31
0.0
  0
LINE
  5
22F
330
1F
100
AcDbEntity
  8
0
  6
Continuous
 62
     7
370
    25
100
AcDbLine
 10
226.7958757199
 20
324.1015693203
 30
0.0
 11
226.7958757199
 21
336.1015712873
 31
0.0
  0
LINE
  5
230
330
1F
100
AcDbEntity
  8
0
  6
Continuous
 62
     7
370
    25
100
AcDbLine
 10
226.7958757199
 20
336.1015712873
 30
0.0
 11
216.7958703554
 21
336.1015712873
 31
0.0
  0
LINE
  5
231
330
1F
100
AcDbEntity
  8
0
  6
Continuous
 62
     7
370
    25
100
AcDbLine
 10
216.7958703554
 20
336.1015712873
 30
0.0
 11
216.7958703554
 21
350.1015698568
 31
0.0
  0
LINE
  5
232
330
1F
100
AcDbEntity
  8
0
  6
Continuous
 62
     7
370
    25
100
AcDbLine
 10
268.7958714283
 20
350.1015698568
 30
0.0
 11
216.7958703554
 21
350.1015698568
 31
0.0
  0
LINE
  5
233
330
1F
100
AcDbEntity
  8
0
  6
Continuous
 62
     7
370
    25
100
AcDbLine
 10
268.7958714283
 20
254.1015690223
 30
0.0
 11
216.7958703554
 21
254.1015690223
 31
0.0
  0
LINE
  5
234
330
1F
100
AcDbEntity
  8
0
  6
Continuous
 62
     7
370
    25
100
AcDbLine
 10
216.7958703554
 20
254.1015690223
 30
0.0
 11
216.7958703554
 21
268.1015675918
 31
0.0
  0
LINE
  5
235
330
1F
100
AcDbEntity
  8
0
  6
Continuous
 62
     7
370
    25
100
AcDbLine
 10
216.7958703554
 20
268.1015675918
 30
0.0
 11
226.7958757199
 21
268.1015675918
 31
0.0
  0
LINE
  5
236
330
1F
100
AcDbEntity
  8
0
  6
Continuous
 62
     7
370
    25
100
AcDbLine
 10
226.7958757199
 20
268.1015675918
 30
0.0
 11
226.7958757199
 21
280.1015695587
 31
0.0
  0
LINE
  5
237
330
1F
100
AcDbEntity
  8
0
  6
Continuous
 62
     7
370
    25
100
AcDbLine
 10
216.7958703554
 20
324.1015693203
 30
0.0
 11
216.7958703554
 21
336.1015712873
 31
0.0
  0
LINE
  5
238
330
1F
100
AcDbEntity
  8
0
  6
Continuous
 62
     7
370
    25
100
AcDbLine
 10
216.7958703554
 20
268.1015675918
 30
0.0
 11
216.7958703554
 21
280.1015695587
 31
0.0
  0
LINE
  5
239
330
1F
100
AcDbEntity
  8
0
  6
Continuous
 62
     7
370
    25
100
AcDbLine
 10
268.7958714283
 20
350.1015698568
 30
0.0
 11
666.7958733357
 21
350.1015698568
 31
0.0
  0
LINE
  5
23A
330
1F
100
AcDbEntity
  8
0
  6
Continuous
 62
     7
370
    25
100
AcDbLine
 10
666.7958733357
 20
350.1015698568
 30
0.0
 11
666.7958733357
 21
347.1015712277
 31
0.0
  0
LINE
  5
23B
330
1F
100
AcDbEntity
  8
0
  6
Continuous
 62
     7
370
    25
100
AcDbLine
 10
666.7958733357
 20
347.1015712277
 30
0.0
 11
268.7958714283
 21
347.1015712277
 31
0.0
  0
LINE
  5
23C
330
1F
100
AcDbEntity
  8
0
  6
Continuous
 62
     7
370
    25
100
AcDbLine
 10
268.7958714283
 20
347.1015712277
 30
0.0
 11
268.7958714283
 21
350.1015698568
 31
0.0
  0
LINE
  5
23D
330
1F
100
AcDbEntity
  8
0
  6
Continuous
 62
     7
370
    25
100
AcDbLine
 10
666.7958733357
 20
355.1015688137
 30
0.0
 11
666.7958733357
 21
350.1015698568
 31
0.0
  0
LINE
  5
23E
330
1F
100
AcDbEntity
  8
0
  6
Continuous
 62
     7
370
    25
100
AcDbLine
 10
268.7958714283
 20
355.1015688137
 30
0.0
 11
666.7958733357
 21
355.1015688137
 31
0.0
  0
LINE
  5
23F
330
1F
100
AcDbEntity
  8
0
  6
Continuous
 62
     7
370
    25
100
AcDbLine
 10
268.7958714283
 20
355.1015688137
 30
0.0
 11
268.7958714283
 21
350.1015698568
 31
0.0
  0
LINE
  5
240
330
1F
100
AcDbEntity
  8
0
  6
Continuous
 62
     7
370
    25
100
AcDbLine
 10
268.7958714283
 20
249.1015700654
 30
0.0
 11
666.7958733357
 21
249.1015700654
 31
0.0
  0
LINE
  5
241
330
1F
100
AcDbEntity
  8
0
  6
Continuous
 62
     7
370
    25
100
AcDbLine
 10
666.7958733357
 20
254.1015690223
 30
0.0
 11
268.7958714283
 21
254.1015690223
 31
0.0
  0
LINE
  5
242
330
1F
100
AcDbEntity
  8
0
  6
Continuous
 62
     7
370
    25
100
AcDbLine
 10
666.7958733357
 20
254.1015690223
 30
0.0
 11
666.7958733357
 21
249.1015700654
 31
0.0
  0
LINE
  5
243
330
1F
100
AcDbEntity
  8
0
  6
Continuous
 62
     7
370
    25
100
AcDbLine
 10
268.7958714283
 20
254.1015690223
 30
0.0
 11
268.7958714283
 21
249.1015700654
 31
0.0
  0
LINE
  5
244
330
1F
100
AcDbEntity
  8
0
  6
Continuous
 62
     7
370
    25
100
AcDbLine
 10
268.7958714283
 20
257.1015676514
 30
0.0
 11
666.7958733357
 21
257.1015676514
 31
0.0
  0
LINE
  5
245
330
1F
100
AcDbEntity
  8
0
  6
Continuous
 62
     7
370
    25
100
AcDbLine
 10
666.7958733357
 20
257.1015676514
 30
0.0
 11
666.7958733357
 21
254.1015690223
 31
0.0
  0
LINE
  5
246
330
1F
100
AcDbEntity
  8
0
  6
Continuous
 62
     7
370
    25
100
AcDbLine
 10
268.7958714283
 20
254.1015690223
 30
0.0
 11
268.7958714283
 21
257.1015676514
 31
0.0
  0
ARC
  5
247
330
1F
100
AcDbEntity
  8
0
  6
Continuous
 62
     7
370
    25
100
AcDbCircle
 10
306.7958745278
 20
328.1015694395
 30
0.0
 40
4.0
100
AcDbArc
 50
90.0
 51
180.0
  0
ARC
  5
248
330
1F
100
AcDbEntity
  8
0
  6
Continuous
 62
     7
370
    25
100
AcDbCircle
 10
366.7958745278
 20
328.1015694395
 30
0.0
 40
4.0
100
AcDbArc
 50
0.0
 51
90.0
  0
LINE
  5
249
330
1F
100
AcDbEntity
  8
0
  6
Continuous
 62
     7
370
    25
100
AcDbLine
 10
370.7958769716
 20
328.101569976
 30
0.0
 11
370.7958769716
 21
276.1015689031
 31
0.0
  0
ARC
  5
24A
330
1F
100
AcDbEntity
  8
0
  6
Continuous
 62
     7
370
    25
100
AcDbCircle
 10
366.7958745278
 20
276.1015694395
 30
0.0
 40
4.0
100
AcDbArc
 50
270.0
 51
0.0
  0
LINE
  5
24B
330
1F
100
AcDbEntity
  8
0
  6
Continuous
 62
     7
370
    25
100
AcDbLine
 10
366.7958763159
 20
272.1015701101
 30
0.0
 11
306.7958739317
 21
272.1015701101
 31
0.0
  0
ARC
  5
24C
330
1F
100
AcDbEntity
  8
0
  6
Continuous
 62
     7
370
    25
100
AcDbCircle
 10
306.7958745278
 20
276.1015694395
 30
0.0
 40
4.0
100
AcDbArc
 50
180.0
 51
270.0
  0
LINE
  5
24D
330
1F
100
AcDbEntity
  8
0
  6
Continuous
 62
     7
370
    25
100
AcDbLine
 10
302.7958807266
 20
276.1015689031
 30
0.0
 11
302.7958807266
 21
328.101569976
 31
0.0
  0
LINE
  5
24E
330
1F
100
AcDbEntity
  8
0
  6
Continuous
 62
     7
370
    25
100
AcDbLine
 10
306.7958739317
 20
332.101568769
 30
0.0
 11
366.7958763159
 21
332.101568769
 31
0.0
  0
ARC
  5
24F
330
1F
100
AcDbEntity
  8
0
  6
Continuous
 62
     7
370
    25
100
AcDbCircle
 10
518.7958745278
 20
328.1015694395
 30
0.0
 40
4.0
100
AcDbArc
 50
0.0
 51
90.0
  0
LINE
  5
250
330
1F
100
AcDbEntity
  8
0
  6
Continuous
 62
     7
370
    25
100
AcDbLine
 10
522.795872084
 20
276.1015689031
 30
0.0
 11
522.795872084
 21
328.101569976
 31
0.0
  0
ARC
  5
251
330
1F
100
AcDbEntity
  8
0
  6
Continuous
 62
     7
370
    25
100
AcDbCircle
 10
518.7958745278
 20
276.1015694395
 30
0.0
 40
4.0
100
AcDbArc
 50
270.0
 51
0.0
  0
LINE
  5
252
330
1F
100
AcDbEntity
  8
0
  6
Continuous
 62
     7
370
    25
100
AcDbLine
 10
458.7958746321
 20
272.1015701101
 30
0.0
 11
518.7958714283
 21
272.1015701101
 31
0.0
  0
ARC
  5
253
330
1F
100
AcDbEntity
  8
0
  6
Continuous
 62
     7
370
    25
100
AcDbCircle
 10
458.7958745278
 20
276.1015694395
 30
0.0
 40
4.0
100
AcDbArc
 50
180.0
 51
270.0
  0
LINE
  5
254
330
1F
100
AcDbEntity
  8
0
  6
Continuous
 62
     7
370
    25
100
AcDbLine
 10
454.7958749077
 20
328.101569976
 30
0.0
 11
454.7958749077
 21
276.1015689031
 31
0.0
  0
ARC
  5
255
330
1F
100
AcDbEntity
  8
0
  6
Continuous
 62
     7
370
    25
100
AcDbCircle
 10
458.7958745278
 20
328.1015694395
 30
0.0
 40
4.0
100
AcDbArc
 50
90.0
 51
180.0
  0
LINE
  5
256
330
1F
100
AcDbEntity
  8
0
  6
Continuous
 62
     7
370
    25
100
AcDbLine
 10
518.7958714283
 20
332.101568769
 30
0.0
 11
458.7958746321
 21
332.101568769
 31
0.0
  0
LINE
  5
257
330
1F
100
AcDbEntity
  8
0
  6
Continuous
 62
     7
370
    25
100
AcDbLine
 10
444.4369001045
 20
287.8708003119
 30
0.0
 11
444.4148650124
 21
286.1199995533
 31
0.0
  0
SPLINE
  5
258
330
1F
100
AcDbEntity
  8
0
  6
Continuous
 62
     7
370
    25
100
AcDbSpline
210
0.0
220
0.0
230
1.0
 70
     8
 71
     3
 72
    16
 73
    12
 74
     0
 42
0.000000001
 43
0.00000001
 40
0.0
 40
0.0
 40
0.0
 40
0.0
 40
0.1251074693390037
 40
0.250216856570541
 40
0.3752798277144211
 40
0.5001588013825338
 40
0.6249876124133269
 40
0.7498351901614972
 40
0.8332392269774557
 40
0.9166127690347529
 40
1.0
 40
1.0
 40
1.0
 40
1.0
 10
444.4148650123848
 20
286.119999553318
 30
0.0
 10
444.4164565610746
 20
285.9726765438854
 30
0.0
 10
444.4196396828524
 20
285.6780282665642
 30
0.0
 10
444.4514412402001
 20
285.2370851008934
 30
0.0
 10
444.5143116988785
 20
284.7990942417226
 30
0.0
 10
444.6569007672978
 20
284.377003702023
 30
0.0
 10
444.9102448069821
 20
284.0086110708408
 30
0.0
 10
445.218658733181
 20
283.7574184606501
 30
0.0
 10
445.5287710415986
 20
283.6068034995706
 30
0.0
 10
445.814592719885
 20
283.5257103689439
 30
0.0
 10
446.0112431667903
 20
283.5164537730449
 30
0.0
 10
446.1095764614752
 20
283.5118250951719
 30
0.0
  0
SPLINE
  5
259
330
1F
100
AcDbEntity
  8
0
  6
Continuous
 62
     7
370
    25
100
AcDbSpline
210
0.0
220
0.0
230
1.0
 70
     8
 71
     3
 72
    15
 73
    11
 74
     0
 42
0.000000001
 43
0.00000001
 40
0.0
 40
0.0
 40
0.0
 40
0.0
 40
0.1249358167245108
 40
0.2498602545217213
 40
0.3747786341566303
 40
0.4996632666926448
 40
0.6245789539236765
 40
0.7496815129582773
 40
0.8748345931372838
 40
1.0
 40
1.0
 40
1.0
 40
1.0
 10
446.1095764614752
 20
283.5118250951719
 30
0.0
 10
446.2533336197222
 20
283.5222265118432
 30
0.0
 10
446.5408348430751
 20
283.5430283978436
 30
0.0
 10
446.9388824364937
 20
283.7244417795962
 30
0.0
 10
447.2796507814748
 20
283.9914329647688
 30
0.0
 10
447.5352317147405
 20
284.3449725460966
 30
0.0
 10
447.6755095368728
 20
284.755907861675
 30
0.0
 10
447.7353296151533
 20
285.1823777294054
 30
0.0
 10
447.7678227395357
 20
285.6115434880463
 30
0.0
 10
447.7694298991631
 20
285.8984262054804
 30
0.0
 10
447.7702335185482
 20
286.0418746278238
 30
0.0
  0
LINE
  5
25A
330
1F
100
AcDbEntity
  8
0
  6
Continuous
 62
     7
370
    25
100
AcDbLine
 10
447.7702335185
 20
286.0418746278
 30
0.0
 11
447.7702335185
 21
287.8708003119
 31
0.0
  0
LINE
  5
25B
330
1F
100
AcDbEntity
  8
0
  6
Continuous
 62
     7
370
    25
100
AcDbLine
 10
447.7702335185
 20
287.8708003119
 30
0.0
 11
444.4369001045
 21
287.8708003119
 31
0.0
  0
LINE
  5
25C
330
1F
100
AcDbEntity
  8
0
  6
Continuous
 62
     7
370
    25
100
AcDbLine
 10
448.7958746228
 20
288.7682357833
 30
0.0
 11
448.7958746228
 21
286.8070986152
 31
0.0
  0
SPLINE
  5
25D
330
1F
100
AcDbEntity
  8
0
  6
Continuous
 62
     7
370
    25
100
AcDbSpline
210
0.0
220
0.0
230
1.0
 70
     8
 71
     3
 72
    10
 73
     6
 74
     0
 42
0.000000001
 43
0.00000001
 40
0.0
 40
0.0
 40
0.0
 40
0.0
 40
0.5600751285889336
 40
0.7801052038968027
 40
1.0
 40
1.0
 40
1.0
 40
1.0
 10
448.7958746227546
 20
286.8070986152243
 30
0.0
 10
448.790579606251
 20
286.3804162981246
 30
0.0
 10
448.7832043993932
 20
285.7861083580115
 30
0.0
 10
448.7379661197564
 20
285.0242337287049
 30
0.0
 10
448.6764051502645
 20
284.6943463173834
 30
0.0
 10
448.645634130679
 20
284.529453332777
 30
0.0
  0
SPLINE
  5
25E
330
1F
100
AcDbEntity
  8
0
  6
Continuous
 62
     7
370
    25
100
AcDbSpline
210
0.0
220
0.0
230
1.0
 70
     8
 71
     3
 72
    14
 73
    10
 74
     0
 42
0.000000001
 43
0.00000001
 40
0.0
 40
0.0
 40
0.0
 40
0.0
 40
0.140016409891593
 40
0.2799929530953536
 40
0.4200127336469127
 40
0.5600068499463384
 40
0.70660959296738
 40
0.8532846874077475
 40
1.0
 40
1.0
 40
1.0
 40
1.0
 10
448.645634130679
 20
284.529453332777
 30
0.0
 10
448.5990510754114
 20
284.3755466911831
 30
0.0
 10
448.505898228408
 20
284.0677772296305
 30
0.0
 10
448.2619737253809
 20
283.6479972977484
 30
0.0
 10
447.9464048586199
 20
283.2821000503329
 30
0.0
 10
447.5618765890645
 20
282.9747316872217
 30
0.0
 10
447.1110024007409
 20
282.7581803173782
 30
0.0
 10
446.6181973724566
 20
282.6351122017315
 30
0.0
 10
446.2818030529166
 20
282.6212977809781
 30
0.0
 10
446.1135828365682
 20
282.6143896237564
 30
0.0
  0
SPLINE
  5
25F
330
1F
100
AcDbEntity
  8
0
  6
Continuous
 62
     7
370
    25
100
AcDbSpline
210
0.0
220
0.0
230
1.0
 70
     8
 71
     3
 72
    14
 73
    10
 74
     0
 42
0.000000001
 43
0.00000001
 40
0.0
 40
0.0
 40
0.0
 40
0.0
 40
0.1400651532212213
 40
0.2800459142256695
 40
0.4200202259107941
 40
0.5599838438361228
 40
0.7066006671431629
 40
0.8532632427214656
 40
1.0
 40
1.0
 40
1.0
 40
1.0
 10
446.1135828365682
 20
282.6143896237564
 30
0.0
 10
445.9495019943374
 20
282.6209556881155
 30
0.0
 10
445.6214391720527
 20
282.6340838606409
 30
0.0
 10
445.1395919603847
 20
282.7484170029224
 30
0.0
 10
444.6899882475195
 20
282.9560744941792
 30
0.0
 10
444.2924809529896
 20
283.2648956368737
 30
0.0
 10
443.9632548029942
 20
283.6552495914304
 30
0.0
 10
443.7191088701601
 20
284.1138401262692
 30
0.0
 10
443.6233923240359
 20
284.4443071671495
 30
0.0
 10
443.5755219507142
 20
284.6095824644518
 30
0.0
  0
SPLINE
  5
260
330
1F
100
AcDbEntity
  8
0
  6
Continuous
 62
     7
370
    25
100
AcDbSpline
210
0.0
220
0.0
230
1.0
 70
     8
 71
     3
 72
    10
 73
     6
 74
     0
 42
0.000000001
 43
0.00000001
 40
0.0
 40
0.0
 40
0.0
 40
0.0
 40
0.2798613975134455
 40
0.5599189572527029
 40
1.0
 40
1.0
 40
1.0
 40
1.0
 10
443.5755219507142
 20
284.6095824644518
 30
0.0
 10
443.5364419609583
 20
284.8449233819297
 30
0.0
 10
443.4582545892522
 20
285.3157701735341
 30
0.0
 10
443.4217751127137
 20
286.1679006172221
 30
0.0
 10
443.4152479944543
 20
286.780992305432
 30
0.0
 10
443.4112592331244
 20
287.1556563333225
 30
0.0
  0
LINE
  5
261
330
1F
100
AcDbEntity
  8
0
  6
Continuous
 62
     7
370
    25
100
AcDbLine
 10
443.4112592331
 20
287.1556563333
 30
0.0
 11
443.4112592331
 21
287.8708003119
 31
0.0
  0
LINE
  5
262
330
1F
100
AcDbEntity
  8
0
  6
Continuous
 62
     7
370
    25
100
AcDbLine
 10
443.4112592331
 20
287.8708003119
 30
0.0
 11
438.7958741478
 21
287.8708003119
 31
0.0
  0
LINE
  5
263
330
1F
100
AcDbEntity
  8
0
  6
Continuous
 62
     7
370
    25
100
AcDbLine
 10
438.7958741478
 20
288.7682357833
 30
0.0
 11
448.7958746228
 21
288.7682357833
 31
0.0
  0
LINE
  5
264
330
1F
100
AcDbEntity
  8
0
  6
Continuous
 62
     7
370
    25
100
AcDbLine
 10
438.7958741478
 20
287.8708003119
 30
0.0
 11
438.7958741478
 21
288.7682357833
 31
0.0
  0
SPLINE
  5
265
330
1F
100
AcDbEntity
  8
0
  6
Continuous
 62
     7
370
    25
100
AcDbSpline
210
0.0
220
0.0
230
1.0
 70
     8
 71
     3
 72
    16
 73
    12
 74
     0
 42
0.000000001
 43
0.00000001
 40
0.0
 40
0.0
 40
0.0
 40
0.0
 40
0.1121122035443804
 40
0.2242101457514337
 40
0.3362854287927752
 40
0.4482523784482774
 40
0.5601028471675775
 40
0.6700182900426837
 40
0.7799755440718108
 40
0.8899539962413267
 40
1.0
 40
1.0
 40
1.0
 40
1.0
 10
382.0522811926081
 20
285.587147067542
 30
0.0
 10
382.0545459545521
 20
285.4643297075917
 30
0.0
 10
382.0590751903491
 20
285.2187106107878
 30
0.0
 10
382.1015379861983
 20
284.8520822874595
 30
0.0
 10
382.1833210511884
 20
284.4923829279495
 30
0.0
 10
382.3201530581
 20
284.147782126325
 30
0.0
 10
382.5422022423875
 20
283.8514684137108
 30
0.0
 10
382.8319216624059
 20
283.6256104911353
 30
0.0
 10
383.1646128282369
 20
283.4778069128217
 30
0.0
 10
383.5193607448593
 20
283.3968194917822
 30
0.0
 10
383.760570539418
 20
283.3880214591108
 30
0.0
 10
383.8812124646379
 20
283.3836210921955
 30
0.0
  0
SPLINE
  5
266
330
1F
100
AcDbEntity
  8
0
  6
Continuous
 62
     7
370
    25
100
AcDbSpline
210
0.0
220
0.0
230
1.0
 70
     8
 71
     3
 72
    13
 73
     9
 74
     0
 42
0.000000001
 43
0.00000001
 40
0.0
 40
0.0
 40
0.0
 40
0.0
 40
0.1866780017541743
 40
0.3734119184203952
 40
0.5599838773680363
 40
0.7066030267758735
 40
0.8534011345623749
 40
1.0
 40
1.0
 40
1.0
 40
1.0
 10
383.8812124646379
 20
283.3836210921955
 30
0.0
 10
384.0141921063373
 20
283.3889198505383
 30
0.0
 10
384.2801912205939
 20
283.3995189543398
 30
0.0
 10
384.6669488358358
 20
283.5096293054992
 30
0.0
 10
384.9951322920672
 20
283.6870688083499
 30
0.0
 10
385.2537581429382
 20
283.9120971540717
 30
0.0
 10
385.447507562043
 20
284.1633964372169
 30
0.0
 10
385.5184428678507
 20
284.360737820934
 30
0.0
 10
385.5538864350988
 20
284.4593415067148
 30
0.0
  0
SPLINE
  5
267
330
1F
100
AcDbEntity
  8
0
  6
Continuous
 62
     7
370
    25
100
AcDbSpline
210
0.0
220
0.0
230
1.0
 70
     8
 71
     3
 72
    10
 73
     6
 74
     0
 42
0.000000001
 43
0.00000001
 40
0.0
 40
0.0
 40
0.0
 40
0.0
 40
0.2798490689332035
 40
0.5598956080841421
 40
1.0
 40
1.0
 40
1.0
 40
1.0
 10
385.5538864350988
 20
284.4593415067148
 30
0.0
 10
385.5748409700417
 20
284.5654039292765
 30
0.0
 10
385.6167648260998
 20
284.777603615348
 30
0.0
 10
385.6371032919441
 20
285.1637067711432
 30
0.0
 10
385.6401592326534
 20
285.4414486603498
 30
0.0
 10
385.6420268035604
 20
285.6111845031929
 30
0.0
  0
LINE
  5
268
330
1F
100
AcDbEntity
  8
0
  6
Continuous
 62
     7
370
    25
100
AcDbLine
 10
385.6420268036
 20
285.6111845032
 30
0.0
 11
385.6420268036
 21
287.9990052462
 31
0.0
  0
LINE
  5
269
330
1F
100
AcDbEntity
  8
0
  6
Continuous
 62
     7
370
    25
100
AcDbLine
 10
385.6420268036
 20
287.9990052462
 30
0.0
 11
382.0522811926
 21
287.9990052462
 31
0.0
  0
LINE
  5
26A
330
1F
100
AcDbEntity
  8
0
  6
Continuous
 62
     7
370
    25
100
AcDbLine
 10
382.0522811926
 20
287.9990052462
 30
0.0
 11
382.0522811926
 21
285.5871470675
 31
0.0
  0
LINE
  5
26B
330
1F
100
AcDbEntity
  8
0
  6
Continuous
 62
     7
370
    25
100
AcDbLine
 10
376.7958742297
 20
289.4092613862
 30
0.0
 11
386.7958758689
 21
289.4092613862
 31
0.0
  0
LINE
  5
26C
330
1F
100
AcDbEntity
  8
0
  6
Continuous
 62
     7
370
    25
100
AcDbLine
 10
386.7958758689
 20
289.4092613862
 30
0.0
 11
386.7958758689
 21
285.7353838191
 31
0.0
  0
SPLINE
  5
26D
330
1F
100
AcDbEntity
  8
0
  6
Continuous
 62
     7
370
    25
100
AcDbSpline
210
0.0
220
0.0
230
1.0
 70
     8
 71
     3
 72
     9
 73
     5
 74
     0
 42
0.000000001
 43
0.00000001
 40
0.0
 40
0.0
 40
0.0
 40
0.0
 40
0.5601019699028955
 40
1.0
 40
1.0
 40
1.0
 40
1.0
 10
386.7958758688642
 20
285.7353838190984
 30
0.0
 10
386.79468394341
 20
285.4575019700878
 30
0.0
 10
386.7925558925937
 20
284.9613747219389
 30
0.0
 10
386.7294729458612
 20
284.4694217302073
 30
0.0
 10
386.7017228818609
 20
284.2530125782442
 30
0.0
  0
SPLINE
  5
26E
330
1F
100
AcDbEntity
  8
0
  6
Continuous
 62
     7
370
    25
100
AcDbSpline
210
0.0
220
0.0
230
1.0
 70
     8
 71
     3
 72
    14
 73
    10
 74
     0
 42
0.000000001
 43
0.00000001
 40
0.0
 40
0.0
 40
0.0
 40
0.0
 40
0.1400628918143128
 40
0.2800739320709722
 40
0.419962862388824
 40
0.5599166922947548
 40
0.7065749352912187
 40
0.8532939494632563
 40
1.0
 40
1.0
 40
1.0
 40
1.0
 10
386.7017228818609
 20
284.2530125782442
 30
0.0
 10
386.6642824801374
 20
284.0722683293652
 30
0.0
 10
386.5894155372006
 20
283.710846743483
 30
0.0
 10
386.3607861106122
 20
283.2025203468414
 30
0.0
 10
386.0238224084928
 20
282.7579966125701
 30
0.0
 10
385.5763151431614
 20
282.4109823399769
 30
0.0
 10
385.0631076073059
 20
282.1571584369827
 30
0.0
 10
384.5010283157387
 20
281.998878796332
 30
0.0
 10
384.1145199042199
 20
281.9818686955656
 30
0.0
 10
383.9212742365076
 20
281.9733640209388
 30
0.0
  0
SPLINE
  5
26F
330
1F
100
AcDbEntity
  8
0
  6
Continuous
 62
     7
370
    25
100
AcDbSpline
210
0.0
220
0.0
230
1.0
 70
     8
 71
     3
 72
    17
 73
    13
 74
     0
 42
0.000000001
 43
0.00000001
 40
0.0
 40
0.0
 40
0.0
 40
0.0
 40
0.0933509836138686
 40
0.1866874705512932
 40
0.2800289349471216
 40
0.3733577878593424
 40
0.4666634310204019
 40
0.5599113680158888
 40
0.6698462399549076
 40
0.7798786733989386
 40
0.8899292426334102
 40
1.0
 40
1.0
 40
1.0
 40
1.0
 10
383.9212742365076
 20
281.9733640209388
 30
0.0
 10
383.7546675779259
 20
281.9790060086194
 30
0.0
 10
383.4214801334714
 20
281.9902891078239
 30
0.0
 10
382.9306736123255
 20
282.0950744945015
 30
0.0
 10
382.4614977746603
 20
282.2723751618021
 30
0.0
 10
382.0319140088557
 20
282.5302521427228
 30
0.0
 10
381.642750228661
 20
282.8481447928789
 30
0.0
 10
381.3284847430965
 20
283.2804623980657
 30
0.0
 10
381.1135313225352
 20
283.8002463420948
 30
0.0
 10
380.9785151622484
 20
284.3744406898863
 30
0.0
 10
380.9087020487461
 20
284.9602035332463
 30
0.0
 10
380.9018606106565
 20
285.3527796939252
 30
0.0
 10
380.8984395778849
 20
285.5490857765627
 30
0.0
  0
LINE
  5
270
330
1F
100
AcDbEntity
  8
0
  6
Continuous
 62
     7
370
    25
100
AcDbLine
 10
380.8984395779
 20
285.5490857766
 30
0.0
 11
380.8984395779
 21
287.9990052462
 31
0.0
  0
LINE
  5
271
330
1F
100
AcDbEntity
  8
0
  6
Continuous
 62
     7
370
    25
100
AcDbLine
 10
380.8984395779
 20
287.9990052462
 30
0.0
 11
376.7958742297
 21
287.9990052462
 31
0.0
  0
LINE
  5
272
330
1F
100
AcDbEntity
  8
0
  6
Continuous
 62
     7
370
    25
100
AcDbLine
 10
376.7958742297
 20
287.9990052462
 30
0.0
 11
376.7958742297
 21
289.4092613862
 31
0.0
  0
LINE
  5
273
330
1F
100
AcDbEntity
  8
0
  6
Continuous
 62
     7
370
    25
100
AcDbLine
 10
376.7958742297
 20
276.2041335956
 30
0.0
 11
376.7958742297
 21
277.4861848012
 31
0.0
  0
LINE
  5
274
330
1F
100
AcDbEntity
  8
0
  6
Continuous
 62
     7
370
    25
100
AcDbLine
 10
376.7958742297
 20
277.4861848012
 30
0.0
 11
384.5883433438
 21
277.4861848012
 31
0.0
  0
SPLINE
  5
275
330
1F
100
AcDbEntity
  8
0
  6
Continuous
 62
     7
370
    25
100
AcDbSpline
210
0.0
220
0.0
230
1.0
 70
     8
 71
     3
 72
    11
 73
     7
 74
     0
 42
0.000000001
 43
0.00000001
 40
0.0
 40
0.0
 40
0.0
 40
0.0
 40
0.279894251200815
 40
0.5599074758980055
 40
0.7799831976675163
 40
1.0
 40
1.0
 40
1.0
 40
1.0
 10
384.5883433438017
 20
277.4861848012161
 30
0.0
 10
384.4158314051055
 20
277.6770989348234
 30
0.0
 10
384.0707341987739
 20
278.0590083531222
 30
0.0
 10
383.6864351719853
 20
278.6652644348023
 30
0.0
 10
383.3544347313131
 20
279.2372556895492
 30
0.0
 10
383.1941254077779
 20
279.6083533532515
 30
0.0
 10
383.1139814770891
 20
279.7938773438883
 30
0.0
  0
LINE
  5
276
330
1F
100
AcDbEntity
  8
0
  6
Continuous
 62
     7
370
    25
100
AcDbLine
 10
383.1139814771
 20
279.7938773439
 30
0.0
 11
384.2958745278
 21
279.7938773439
 31
0.0
  0
SPLINE
  5
277
330
1F
100
AcDbEntity
  8
0
  6
Continuous
 62
     7
370
    25
100
AcDbSpline
210
0.0
220
0.0
230
1.0
 70
     8
 71
     3
 72
    13
 73
     9
 74
     0
 42
0.000000001
 43
0.00000001
 40
0.0
 40
0.0
 40
0.0
 40
0.0
 40
0.1866744248780487
 40
0.373365923041053
 40
0.5600251656050255
 40
0.7066920226351945
 40
0.8534187445164102
 40
0.9999999999999999
 40
0.9999999999999999
 40
0.9999999999999999
 40
0.9999999999999999
 10
384.2958745277597
 20
279.7938773438883
 30
0.0
 10
384.4048414361473
 20
279.5847296289258
 30
0.0
 10
384.6227852190602
 20
279.1664150703036
 30
0.0
 10
385.0226747636507
 20
278.5813840225594
 30
0.0
 10
385.4456024154368
 20
278.0776625195136
 30
0.0
 10
385.8782556256376
 20
277.6530021388793
 30
0.0
 10
386.307947058677
 20
277.2970616045988
 30
0.0
 10
386.6332867163161
 20
277.1186276349611
 30
0.0
 10
386.7958758688642
 20
277.0294548973989
 30
0.0
  0
LINE
  5
278
330
1F
100
AcDbEntity
  8
0
  6
Continuous
 62
     7
370
    25
100
AcDbLine
 10
386.7958758689
 20
277.0294548974
 30
0.0
 11
386.7958758689
 21
276.2041335956
 31
0.0
  0
LINE
  5
279
330
1F
100
AcDbEntity
  8
0
  6
Continuous
 62
     7
370
    25
100
AcDbLine
 10
386.7958758689
 20
276.2041335956
 30
0.0
 11
376.7958742297
 21
276.2041335956
 31
0.0
  0
LINE
  5
27A
330
1F
100
AcDbEntity
  8
0
  6
Continuous
 62
     7
370
    25
100
AcDbLine
 10
445.7189514266
 20
280.1784930781
 30
0.0
 11
445.7189514266
 21
281.0759285495
 31
0.0
  0
SPLINE
  5
27B
330
1F
100
AcDbEntity
  8
0
  6
Continuous
 62
     7
370
    25
100
AcDbSpline
210
0.0
220
0.0
230
1.0
 70
     8
 71
     3
 72
    16
 73
    12
 74
     0
 42
0.000000001
 43
0.00000001
 40
0.0
 40
0.0
 40
0.0
 40
0.0
 40
0.1120293201810659
 40
0.2240438996985648
 40
0.336041959944625
 40
0.4480355816358436
 40
0.5600453183500582
 40
0.6700140253911782
 40
0.7799807815538513
 40
0.8899886005451323
 40
1.0
 40
1.0
 40
1.0
 40
1.0
 10
445.7189514265506
 20
281.0759285495233
 30
0.0
 10
445.9126711601991
 20
281.0635284178213
 30
0.0
 10
446.3000851381203
 20
281.0387297860095
 30
0.0
 10
446.867638779518
 20
280.8977742539052
 30
0.0
 10
447.4033859990561
 20
280.6646451397641
 30
0.0
 10
447.8861098022425
 20
280.3348675226823
 30
0.0
 10
448.3030906192516
 20
279.9311193750591
 30
0.0
 10
448.6425435615734
 20
279.4636756076641
 30
0.0
 10
448.8846481115797
 20
278.9434137097132
 30
0.0
 10
449.0298629424066
 20
278.3865725536041
 30
0.0
 10
449.0448107158406
 20
278.0053333872601
 30
0.0
 10
449.0522847241833
 20
277.8147107020569
 30
0.0
  0
SPLINE
  5
27C
330
1F
100
AcDbEntity
  8
0
  6
Continuous
 62
     7
370
    25
100
AcDbSpline
210
0.0
220
0.0
230
1.0
 70
     8
 71
     3
 72
    16
 73
    12
 74
     0
 42
0.000000001
 43
0.00000001
 40
0.0
 40
0.0
 40
0.0
 40
0.0
 40
0.1120276324970799
 40
0.2240504216671094
 40
0.33599706185312
 40
0.4479851428642238
 40
0.5600028715219076
 40
0.670001666171274
 40
0.7799649243017279
 40
0.8899735869433414
 40
1.0
 40
1.0
 40
1.0
 40
1.0
 10
449.0522847241833
 20
277.8147107020569
 30
0.0
 10
449.0453748117446
 20
277.6379962506654
 30
0.0
 10
449.0315552856058
 20
277.2845749878359
 30
0.0
 10
448.9125712353801
 20
276.764550421353
 30
0.0
 10
448.6965628216351
 20
276.2777882405231
 30
0.0
 10
448.393299984621
 20
275.8393016878947
 30
0.0
 10
448.0113718824574
 20
275.4728402612563
 30
0.0
 10
447.5808791458636
 20
275.1715364268958
 30
0.0
 10
447.1077210143443
 20
274.9494829063868
 30
0.0
 10
446.6004438177534
 20
274.8166985484792
 30
0.0
 10
446.2531762016037
 20
274.8014842748254
 30
0.0
 10
446.0795283863432
 20
274.7938765243244
 30
0.0
  0
SPLINE
  5
27D
330
1F
100
AcDbEntity
  8
0
  6
Continuous
 62
     7
370
    25
100
AcDbSpline
210
0.0
220
0.0
230
1.0
 70
     8
 71
     3
 72
    13
 73
     9
 74
     0
 42
0.000000001
 43
0.00000001
 40
0.0
 40
0.0
 40
0.0
 40
0.0
 40
0.1399326847141434
 40
0.2799336901796517
 40
0.4198712704765301
 40
0.5598827987629574
 40
0.7799280327851905
 40
1.0
 40
1.0
 40
1.0
 40
1.0
 10
446.0795283863432
 20
274.7938765243244
 30
0.0
 10
445.8820257819224
 20
274.8037137466572
 30
0.0
 10
445.4869241443849
 20
274.8233929942494
 30
0.0
 10
444.9133945985997
 20
274.9901179997918
 30
0.0
 10
444.3829303541547
 20
275.2579930210633
 30
0.0
 10
443.8047281119722
 20
275.6629696232649
 30
0.0
 10
443.1734435951518
 20
276.1836303889774
 30
0.0
 10
442.7190158684819
 20
276.6059450543979
 30
0.0
 10
442.4917882039322
 20
276.8171152130317
 30
0.0
  0
LINE
  5
27E
330
1F
100
AcDbEntity
  8
0
  6
Continuous
 62
     7
370
    25
100
AcDbLine
 10
439.8215154848
 20
279.319117035
 30
0.0
 11
439.8215154848
 21
274.6656725213
 31
0.0
  0
LINE
  5
27F
330
1F
100
AcDbEntity
  8
0
  6
Continuous
 62
     7
370
    25
100
AcDbLine
 10
439.8215154848
 20
274.6656725213
 30
0.0
 11
438.7958741478
 21
274.6656725213
 31
0.0
  0
LINE
  5
280
330
1F
100
AcDbEntity
  8
0
  6
Continuous
 62
     7
370
    25
100
AcDbLine
 10
438.7958741478
 20
274.6656725213
 30
0.0
 11
438.7958741478
 21
281.4605442837
 31
0.0
  0
LINE
  5
281
330
1F
100
AcDbEntity
  8
0
  6
Continuous
 62
     7
370
    25
100
AcDbLine
 10
438.7958741478
 20
281.4605442837
 30
0.0
 11
442.9344963479
 21
277.5823382691
 31
0.0
  0
SPLINE
  5
282
330
1F
100
AcDbEntity
  8
0
  6
Continuous
 62
     7
370
    25
100
AcDbSpline
210
0.0
220
0.0
230
1.0
 70
     8
 71
     3
 72
    14
 73
    10
 74
     0
 42
0.000000001
 43
0.00000001
 40
0.0
 40
0.0
 40
0.0
 40
0.0
 40
0.1867039462504896
 40
0.3734025049850155
 40
0.5600671393215557
 40
0.6700371414109343
 40
0.7800403082660787
 40
0.8900329712827638
 40
1.0
 40
1.0
 40
1.0
 40
1.0
 10
442.9344963478966
 20
277.5823382691097
 30
0.0
 10
443.1008564381509
 20
277.4235533723911
 30
0.0
 10
443.4335718181841
 20
277.1059881608397
 30
0.0
 10
443.9482689606518
 20
276.6464781541605
 30
0.0
 10
444.4091840622951
 20
276.2691345523898
 30
0.0
 10
444.8265846588969
 20
275.9896072375025
 30
0.0
 10
445.1984754414787
 20
275.8222342763102
 30
0.0
 10
445.5922061567509
 20
275.7096197821136
 30
0.0
 10
445.8636793888222
 20
275.6974153588565
 30
0.0
 10
445.999400185991
 20
275.6913138583851
 30
0.0
  0
SPLINE
  5
283
330
1F
100
AcDbEntity
  8
0
  6
Continuous
 62
     7
370
    25
100
AcDbSpline
210
0.0
220
0.0
230
1.0
 70
     8
 71
     3
 72
    14
 73
    10
 74
     0
 42
0.000000001
 43
0.00000001
 40
0.0
 40
0.0
 40
0.0
 40
0.0
 40
0.1399967915171592
 40
0.2799259562866402
 40
0.4199190618089961
 40
0.5599778858986275
 40
0.7066073370087476
 40
0.8532538344849258
 40
1.0
 40
1.0
 40
1.0
 40
1.0
 10
445.999400185991
 20
275.6913138583851
 30
0.0
 10
446.1536220509668
 20
275.7010180534061
 30
0.0
 10
446.4619912826171
 20
275.7204217557468
 30
0.0
 10
446.8987444335238
 20
275.890357833408
 30
0.0
 10
447.2796207925107
 20
276.1562067101319
 30
0.0
 10
447.6027228270848
 20
276.5004105782794
 30
0.0
 10
447.8512144784563
 20
276.9106048844912
 30
0.0
 10
448.0014443761137
 20
277.3764080212511
 30
0.0
 10
448.0182420475277
 20
277.6992895068464
 30
0.0
 10
448.0266437363921
 20
277.8607850924682
 30
0.0
  0
SPLINE
  5
284
330
1F
100
AcDbEntity
  8
0
  6
Continuous
 62
     7
370
    25
100
AcDbSpline
210
0.0
220
0.0
230
1.0
 70
     8
 71
     3
 72
    14
 73
    10
 74
     0
 42
0.000000001
 43
0.00000001
 40
0.0
 40
0.0
 40
0.0
 40
0.0
 40
0.1400489976610874
 40
0.2800373873022433
 40
0.4199431365522364
 40
0.559906467548944
 40
0.706520259873158
 40
0.8532297218804026
 40
1.0
 40
1.0
 40
1.0
 40
1.0
 10
448.0266437363921
 20
277.8607850924682
 30
0.0
 10
448.0181547714434
 20
278.0307229506818
 30
0.0
 10
448.0011805152557
 20
278.370525124297
 30
0.0
 10
447.8465990784076
 20
278.8620764219538
 30
0.0
 10
447.5783179219756
 20
279.2991742895516
 30
0.0
 10
447.2133731105059
 20
279.671848938882
 30
0.0
 10
446.7597310652203
 20
279.9460584053031
 30
0.0
 10
446.2495238892184
 20
280.1156798233095
 30
0.0
 10
445.8958333451898
 20
280.1575524341686
 30
0.0
 10
445.7189514265506
 20
280.1784930781078
 30
0.0
  0
LINE
  5
285
330
1F
100
AcDbEntity
  8
0
  6
Continuous
 62
     7
370
    25
100
AcDbLine
 10
442.4917882039
 20
276.817115213
 30
0.0
 11
439.8215154848
 21
279.319117035
 31
0.0
  0
LINE
  5
286
330
1F
100
AcDbEntity
  8
0
  6
Continuous
 62
     7
370
    25
100
AcDbLine
 10
666.7958733357
 20
347.1015712277
 30
0.0
 11
666.7958733357
 21
257.1015676514
 31
0.0
  0
LINE
  5
287
330
1F
100
AcDbEntity
  8
0
  6
Continuous
 62
     7
370
    25
100
AcDbLine
 10
268.7958714283
 20
257.1015676514
 30
0.0
 11
268.7958714283
 21
347.1015712277
 31
0.0
  0
ELLIPSE
  5
288
330
1F
100
AcDbEntity
  8
0
  6
Continuous
 62
     7
370
    25
100
AcDbEllipse
 10
310.4286634156
 20
361.1015694395
 30
0.0
 11
16.6413072069866
 21
1.550736278375666
 31
0.0
210
0.0
220
0.0
230
1.0
 40
0.2403120717
 41
3.066774231410328
 42
4.49001998274235
  0
LINE
  5
289
330
1F
100
AcDbEntity
  8
0
  6
Continuous
 62
     7
370
    25
100
AcDbLine
 10
307.1220603502
 20
356.8589298085
 30
0.0
 11
307.1220603502
 21
355.1015688137
 31
0.0
  0
ARC
  5
28A
330
1F
100
AcDbEntity
  8
0
  6
Continuous
 62
     7
370
    25
100
AcDbCircle
 10
287.9371703286
 20
361.1015694395
 30
0.0
 40
6.00000000000002
100
AcDbArc
 50
270.0
 51
348.0
  0
ELLIPSE
  5
28B
330
1F
100
AcDbEntity
  8
0
  6
Continuous
 62
     7
370
    25
100
AcDbEllipse
 10
625.1630856399
 20
361.1015694395
 30
0.0
 11
16.64130720698665
 21
-1.550736278375666
 31
0.0
210
0.0
220
0.0
230
1.0
 40
0.2403120717
 41
4.934757978027044
 42
6.358003729359035
  0
ARC
  5
28C
330
1F
100
AcDbEntity
  8
0
  6
Continuous
 62
     7
370
    25
100
AcDbCircle
 10
647.6545787269
 20
361.1015694395
 30
0.0
 40
6.000000000000031
100
AcDbArc
 50
192.0
 51
270.0
  0
LINE
  5
28D
330
1F
100
AcDbEntity
  8
0
  6
Continuous
 62
     7
370
    25
100
AcDbLine
 10
628.4696844137
 20
356.8589298085
 30
0.0
 11
628.4696844137
 21
355.1015688137
 31
0.0
  0
LINE
  5
28E
330
1F
100
AcDbEntity
  8
0
  6
Continuous
 62
     7
370
    25
100
AcDbLine
 10
307.1220603502
 20
356.8589298085
 30
0.0
 11
628.4696844137
 21
356.8589298085
 31
0.0
  0
ELLIPSE
  5
28F
330
1F
100
AcDbEntity
  8
0
  6
Continuous
 62
     7
370
    25
100
AcDbEllipse
 10
625.1630856399
 20
243.1015694395
 30
0.0
 11
16.64130720698665
 21
1.550736278375695
 31
0.0
210
0.0
220
0.0
230
1.0
 40
0.2403120717
 41
6.208366885000179
 42
7.631612636332136
  0
LINE
  5
290
330
1F
100
AcDbEntity
  8
0
  6
Continuous
 62
     7
370
    25
100
AcDbLine
 10
628.4696844137
 20
247.3442090706
 30
0.0
 11
628.4696844137
 21
249.1015700654
 31
0.0
  0
ARC
  5
291
330
1F
100
AcDbEntity
  8
0
  6
Continuous
 62
     7
370
    25
100
AcDbCircle
 10
647.6545787269
 20
243.1015694395
 30
0.0
 40
6.000000000000026
100
AcDbArc
 50
90.0
 51
168.0
  0
ELLIPSE
  5
292
330
1F
100
AcDbEntity
  8
0
  6
Continuous
 62
     7
370
    25
100
AcDbEllipse
 10
310.4286634156
 20
243.1015694395
 30
0.0
 11
16.6413072069866
 21
-1.550736278375695
 31
0.0
210
0.0
220
0.0
230
1.0
 40
0.2403120717
 41
1.793165324437246
 42
3.216411075769318
  0
ARC
  5
293
330
1F
100
AcDbEntity
  8
0
  6
Continuous
 62
     7
370
    25
100
AcDbCircle
 10
287.9371703286
 20
243.1015694395
 30
0.0
 40
6.0
100
AcDbArc
 50
12.0
 51
90.0
  0
LINE
  5
294
330
1F
100
AcDbEntity
  8
0
  6
Continuous
 62
     7
370
    25
100
AcDbLine
 10
307.1220603502
 20
247.3442090706
 30
0.0
 11
307.1220603502
 21
249.1015700654
 31
0.0
  0
LINE
  5
295
330
1F
100
AcDbEntity
  8
0
  6
Continuous
 62
     7
370
    25
100
AcDbLine
 10
628.4696844137
 20
247.3442090706
 30
0.0
 11
307.1220603502
 21
247.3442090706
 31
0.0
  0
LINE
  5
296
330
1F
100
AcDbEntity
  8
0
  6
Continuous
 62
     7
370
    25
100
AcDbLine
 10
293.8060548819
 20
359.8541004614
 30
0.0
 11
300.5804952896
 21
391.7253037945
 31
0.0
  0
ELLIPSE
  5
297
330
1F
100
AcDbEntity
  8
0
  6
Continuous
 62
     7
370
    25
100
AcDbEllipse
 10
316.8053602657
 20
391.1015694395
 30
0.0
 11
16.23056513861388
 21
-0.5777319973967681
 31
0.0
210
0.0
220
0.0
230
1.0
 40
0.1272501315
 41
1.696001374446262
 42
3.119247125778306
  0
LINE
  5
298
330
1F
100
AcDbEntity
  8
0
  6
Continuous
 62
     7
370
    25
100
AcDbLine
 10
314.8514565743
 20
393.2228928462
 30
0.0
 11
307.1220603502
 21
356.8589298085
 31
0.0
  0
LINE
  5
299
330
1F
100
AcDbEntity
  8
0
  6
Continuous
 62
     7
370
    25
100
AcDbLine
 10
628.4696844137
 20
356.8589298085
 30
0.0
 11
620.7402881897
 21
393.2228928462
 31
0.0
  0
ELLIPSE
  5
29A
330
1F
100
AcDbEntity
  8
0
  6
Continuous
 62
     7
370
    25
100
AcDbEllipse
 10
618.7863887898
 20
391.1015694395
 30
0.0
 11
16.23056513861388
 21
0.5777319973967112
 31
0.0
210
0.0
220
0.0
230
1.0
 40
0.1272501315
 41
0.0223455278115131
 42
1.445591279143525
  0
LINE
  5
29B
330
1F
100
AcDbEntity
  8
0
  6
Continuous
 62
     7
370
    25
100
AcDbLine
 10
635.0112643755
 20
391.7253037945
 30
0.0
 11
641.7856898821
 21
359.8541004614
 31
0.0
  0
LINE
  5
29C
330
1F
100
AcDbEntity
  8
0
  6
Continuous
 62
     7
370
    25
100
AcDbLine
 10
641.7856898821
 20
244.3490384177
 30
0.0
 11
635.0112643755
 21
212.4778350846
 31
0.0
  0
ELLIPSE
  5
29D
330
1F
100
AcDbEntity
  8
0
  6
Continuous
 62
     7
370
    25
100
AcDbEllipse
 10
618.7863887898
 20
213.1015694395
 30
0.0
 11
16.230565138614
 21
-0.5777319973967395
 31
0.0
210
0.0
220
0.0
230
1.0
 40
0.1272501315
 41
4.837594028036071
 42
6.260839779368181
  0
LINE
  5
29E
330
1F
100
AcDbEntity
  8
0
  6
Continuous
 62
     7
370
    25
100
AcDbLine
 10
620.7402881897
 20
210.9802460328
 30
0.0
 11
628.4696844137
 21
247.3442090706
 31
0.0
  0
LINE
  5
29F
330
1F
100
AcDbEntity
  8
0
  6
Continuous
 62
     7
370
    25
100
AcDbLine
 10
307.1220603502
 20
247.3442090706
 30
0.0
 11
314.8514565743
 21
210.9802460328
 31
0.0
  0
ELLIPSE
  5
2A0
330
1F
100
AcDbEntity
  8
0
  6
Continuous
 62
     7
370
    25
100
AcDbEllipse
 10
316.8053602657
 20
213.1015694395
 30
0.0
 11
16.23056513861394
 21
0.5777319973967396
 31
0.0
210
0.0
220
0.0
230
1.0
 40
0.1272501315
 41
3.163938181401404
 42
4.587183932733321
  0
LINE
  5
2A1
330
1F
100
AcDbEntity
  8
0
  6
Continuous
 62
     7
370
    25
100
AcDbLine
 10
300.5804952896
 20
212.4778350846
 30
0.0
 11
293.8060548819
 21
244.3490384177
 31
0.0
  0
LINE
  5
2A2
330
1F
100
AcDbEntity
  8
0
  6
Continuous
 62
     7
370
    25
100
AcDbLine
 10
620.7402881897
 20
393.2228928462
 30
0.0
 11
314.8514565743
 21
393.2228928462
 31
0.0
  0
LINE
  5
2A3
330
1F
100
AcDbEntity
  8
0
  6
Continuous
 62
     7
370
    25
100
AcDbLine
 10
314.8514565743
 20
210.9802460328
 30
0.0
 11
620.7402881897
 21
210.9802460328
 31
0.0
  0
LINE
  5
2A4
330
1F
100
AcDbEntity
  8
0
  6
Continuous
 62
     7
370
    25
100
AcDbLine
 10
268.1958761728
 20
338.1015678898
 30
0.0
 11
268.7958714283
 21
338.1015678898
 31
0.0
  0
LINE
  5
2A5
330
1F
100
AcDbEntity
  8
0
  6
Continuous
 62
     7
370
    25
100
AcDbLine
 10
268.1958761728
 20
338.1015678898
 30
0.0
 11
268.1958761728
 21
340.1015682176
 31
0.0
  0
LINE
  5
2A6
330
1F
100
AcDbEntity
  8
0
  6
Continuous
 62
     7
370
    25
100
AcDbLine
 10
268.1958761728
 20
340.1015682176
 30
0.0
 11
268.7958714283
 21
340.1015682176
 31
0.0
  0
LINE
  5
2A7
330
1F
100
AcDbEntity
  8
0
  6
Continuous
 62
     7
370
    25
100
AcDbLine
 10
268.1958761728
 20
266.1015709892
 30
0.0
 11
268.7958714283
 21
266.1015709892
 31
0.0
  0
LINE
  5
2A8
330
1F
100
AcDbEntity
  8
0
  6
Continuous
 62
     7
370
    25
100
AcDbLine
 10
268.1958761728
 20
266.1015709892
 30
0.0
 11
268.1958761728
 21
338.1015678898
 31
0.0
  0
LINE
  5
2A9
330
1F
100
AcDbEntity
  8
0
  6
Continuous
 62
     7
370
    25
100
AcDbLine
 10
268.1958761728
 20
264.1015706614
 30
0.0
 11
268.7958714283
 21
264.1015706614
 31
0.0
  0
LINE
  5
2AA
330
1F
100
AcDbEntity
  8
0
  6
Continuous
 62
     7
370
    25
100
AcDbLine
 10
268.1958761728
 20
264.1015706614
 30
0.0
 11
268.1958761728
 21
266.1015709892
 31
0.0
  0
LINE
  5
2AB
330
1F
100
AcDbEntity
  8
0
  6
Continuous
 62
     7
370
    25
100
AcDbLine
 10
620.7402881897
 20
394.1015696183
 30
0.0
 11
632.0768234051
 21
394.1015696183
 31
0.0
  0
ARC
  5
2AC
330
1F
100
AcDbEntity
  8
0
  6
Continuous
 62
     7
370
    25
100
AcDbCircle
 10
632.076816523
 20
391.1015694395
 30
0.0
 40
3.000000000000065
100
AcDbArc
 50
12.0
 51
90.0
  0
LINE
  5
2AD
330
1F
100
AcDbEntity
  8
0
  6
Continuous
 62
     7
370
    25
100
AcDbLine
 10
620.7402881897
 20
394.1015696183
 30
0.0
 11
620.7402881897
 21
393.2228928462
 31
0.0
  0
LINE
  5
2AE
330
1F
100
AcDbEntity
  8
0
  6
Continuous
 62
     7
370
    25
100
AcDbLine
 10
314.8514565743
 20
394.1015696183
 30
0.0
 11
620.7402881897
 21
394.1015696183
 31
0.0
  0
LINE
  5
2AF
330
1F
100
AcDbEntity
  8
0
  6
Continuous
 62
     7
370
    25
100
AcDbLine
 10
314.8514565743
 20
394.1015696183
 30
0.0
 11
314.8514565743
 21
393.2228928462
 31
0.0
  0
LINE
  5
2B0
330
1F
100
AcDbEntity
  8
0
  6
Continuous
 62
     7
370
    25
100
AcDbLine
 10
303.5149362601
 20
394.1015696183
 30
0.0
 11
314.8514565743
 21
394.1015696183
 31
0.0
  0
ARC
  5
2B1
330
1F
100
AcDbEntity
  8
0
  6
Continuous
 62
     7
370
    25
100
AcDbCircle
 10
303.5149325325
 20
391.1015694395
 30
0.0
 40
3.000000000000065
100
AcDbArc
 50
90.0
 51
168.0
  0
LINE
  5
2B2
330
1F
100
AcDbEntity
  8
0
  6
Continuous
 62
     7
370
    25
100
AcDbLine
 10
632.0768234051
 20
210.1015692607
 30
0.0
 11
620.7402881897
 21
210.1015692607
 31
0.0
  0
LINE
  5
2B3
330
1F
100
AcDbEntity
  8
0
  6
Continuous
 62
     7
370
    25
100
AcDbLine
 10
620.7402881897
 20
210.1015692607
 30
0.0
 11
620.7402881897
 21
210.9802460328
 31
0.0
  0
ARC
  5
2B4
330
1F
100
AcDbEntity
  8
0
  6
Continuous
 62
     7
370
    25
100
AcDbCircle
 10
632.076816523
 20
213.1015694395
 30
0.0
 40
3.0
100
AcDbArc
 50
270.0
 51
348.0
  0
LINE
  5
2B5
330
1F
100
AcDbEntity
  8
0
  6
Continuous
 62
     7
370
    25
100
AcDbLine
 10
314.8514565743
 20
210.1015692607
 30
0.0
 11
303.5149362601
 21
210.1015692607
 31
0.0
  0
ARC
  5
2B6
330
1F
100
AcDbEntity
  8
0
  6
Continuous
 62
     7
370
    25
100
AcDbCircle
 10
303.5149325325
 20
213.1015694395
 30
0.0
 40
3.000000000000065
100
AcDbArc
 50
192.0
 51
270.0
  0
LINE
  5
2B7
330
1F
100
AcDbEntity
  8
0
  6
Continuous
 62
     7
370
    25
100
AcDbLine
 10
314.8514565743
 20
210.1015692607
 30
0.0
 11
314.8514565743
 21
210.9802460328
 31
0.0
  0
LINE
  5
2B8
330
1F
100
AcDbEntity
  8
0
  6
Continuous
 62
     7
370
    25
100
AcDbLine
 10
620.7402881897
 20
210.1015692607
 30
0.0
 11
314.8514565743
 21
210.1015692607
 31
0.0
  0
LINE
  5
2B9
330
1F
100
AcDbEntity
  8
0
  6
Continuous
 62
     7
370
    25
100
AcDbLine
 10
678.795867852
 20
308.1015694917
 30
0.0
 11
673.7958726204
 21
308.1015694917
 31
0.0
  0
LINE
  5
2BA
330
1F
100
AcDbEntity
  8
0
  6
Continuous
 62
     7
370
    25
100
AcDbLine
 10
673.7958726204
 20
313.1015693799
 30
0.0
 11
678.795867852
 21
313.1015693799
 31
0.0
  0
LINE
  5
2BB
330
1F
100
AcDbEntity
  8
0
  6
Continuous
 62
     7
370
    25
100
AcDbLine
 10
678.795867852
 20
313.1015693799
 30
0.0
 11
678.795867852
 21
308.1015694917
 31
0.0
  0
LINE
  5
2BC
330
1F
100
AcDbEntity
  8
0
  6
Continuous
 62
     7
370
    25
100
AcDbLine
 10
673.7958726204
 20
308.1015694917
 30
0.0
 11
673.7958726204
 21
313.1015693799
 31
0.0
  0
LINE
  5
2BD
330
1F
100
AcDbEntity
  8
0
  6
Continuous
 62
     7
370
    25
100
AcDbLine
 10
673.7958726204
 20
296.1015693874
 30
0.0
 11
678.795867852
 21
296.1015693874
 31
0.0
  0
LINE
  5
2BE
330
1F
100
AcDbEntity
  8
0
  6
Continuous
 62
     7
370
    25
100
AcDbLine
 10
678.795867852
 20
308.1015694917
 30
0.0
 11
678.795867852
 21
296.1015693874
 31
0.0
  0
LINE
  5
2BF
330
1F
100
AcDbEntity
  8
0
  6
Continuous
 62
     7
370
    25
100
AcDbLine
 10
673.7958726204
 20
308.1015694917
 30
0.0
 11
673.7958726204
 21
296.1015693874
 31
0.0
  0
LINE
  5
2C0
330
1F
100
AcDbEntity
  8
0
  6
Continuous
 62
     7
370
    25
100
AcDbLine
 10
678.795867852
 20
291.1015694991
 30
0.0
 11
673.7958726204
 21
291.1015694991
 31
0.0
  0
LINE
  5
2C1
330
1F
100
AcDbEntity
  8
0
  6
Continuous
 62
     7
370
    25
100
AcDbLine
 10
678.795867852
 20
296.1015693874
 30
0.0
 11
678.795867852
 21
291.1015694991
 31
0.0
  0
LINE
  5
2C2
330
1F
100
AcDbEntity
  8
0
  6
Continuous
 62
     7
370
    25
100
AcDbLine
 10
673.7958726204
 20
291.1015694991
 30
0.0
 11
673.7958726204
 21
296.1015693874
 31
0.0
  0
LINE
  5
2C3
330
1F
100
AcDbEntity
  8
0
  6
Continuous
 62
     7
370
    25
100
AcDbLine
 10
668.7958773888
 20
291.1015694991
 30
0.0
 11
673.7958726204
 21
291.1015694991
 31
0.0
  0
LINE
  5
2C4
330
1F
100
AcDbEntity
  8
0
  6
Continuous
 62
     7
370
    25
100
AcDbLine
 10
668.7958773888
 20
313.1015693799
 30
0.0
 11
668.7958773888
 21
291.1015694991
 31
0.0
  0
LINE
  5
2C5
330
1F
100
AcDbEntity
  8
0
  6
Continuous
 62
     7
370
    25
100
AcDbLine
 10
673.7958726204
 20
313.1015693799
 30
0.0
 11
668.7958773888
 21
313.1015693799
 31
0.0
  0
ARC
  5
2C6
330
1F
100
AcDbEntity
  8
0
  6
Continuous
 62
     7
370
    25
100
AcDbCircle
 10
673.7958745278
 20
322.1015694395
 30
0.0
 40
5.0
100
AcDbArc
 50
270.0
 51
0.0
  0
LINE
  5
2C7
330
1F
100
AcDbEntity
  8
0
  6
Continuous
 62
     7
370
    25
100
AcDbLine
 10
667.5958719767
 20
317.1015691042
 30
0.0
 11
673.7958726204
 21
317.1015691042
 31
0.0
  0
ARC
  5
2C8
330
1F
100
AcDbEntity
  8
0
  6
Continuous
 62
     7
370
    25
100
AcDbCircle
 10
667.5958745278
 20
316.3015694395
 30
0.0
 40
0.8000000000000682
100
AcDbArc
 50
90.0
 51
180.0
  0
ARC
  5
2C9
330
1F
100
AcDbEntity
  8
0
  6
Continuous
 62
     7
370
    25
100
AcDbCircle
 10
667.5958745278
 20
313.9015694395
 30
0.0
 40
0.8000000000000682
100
AcDbArc
 50
180.0
 51
270.0
  0
LINE
  5
2CA
330
1F
100
AcDbEntity
  8
0
  6
Continuous
 62
     7
370
    25
100
AcDbLine
 10
668.7958773888
 20
313.1015693799
 30
0.0
 11
667.5958719767
 21
313.1015693799
 31
0.0
  0
LINE
  5
2CB
330
1F
100
AcDbEntity
  8
0
  6
Continuous
 62
     7
370
    25
100
AcDbLine
 10
667.5958719767
 20
291.1015694991
 30
0.0
 11
668.7958773888
 21
291.1015694991
 31
0.0
  0
ARC
  5
2CC
330
1F
100
AcDbEntity
  8
0
  6
Continuous
 62
     7
370
    25
100
AcDbCircle
 10
667.5958745278
 20
290.3015694395
 30
0.0
 40
0.8000000000000682
100
AcDbArc
 50
90.0
 51
180.0
  0
ARC
  5
2CD
330
1F
100
AcDbEntity
  8
0
  6
Continuous
 62
     7
370
    25
100
AcDbCircle
 10
667.5958745278
 20
287.9015694395
 30
0.0
 40
0.8000000000000682
100
AcDbArc
 50
180.0
 51
270.0
  0
LINE
  5
2CE
330
1F
100
AcDbEntity
  8
0
  6
Continuous
 62
     7
370
    25
100
AcDbLine
 10
673.7958726204
 20
287.1015697748
 30
0.0
 11
667.5958719767
 21
287.1015697748
 31
0.0
  0
ARC
  5
2CF
330
1F
100
AcDbEntity
  8
0
  6
Continuous
 62
     7
370
    25
100
AcDbCircle
 10
673.7958745278
 20
282.1015694395
 30
0.0
 40
5.0
100
AcDbArc
 50
0.0
 51
90.0
  0
LINE
  5
2D0
330
1F
100
AcDbEntity
  8
0
  6
Continuous
 62
     7
370
    25
100
AcDbLine
 10
678.795867852
 20
214.1015699164
 30
0.0
 11
678.795867852
 21
282.1015698866
 31
0.0
  0
ARC
  5
2D1
330
1F
100
AcDbEntity
  8
0
  6
Continuous
 62
     7
370
    25
100
AcDbCircle
 10
674.7958745278
 20
214.1015694395
 30
0.0
 40
4.0
100
AcDbArc
 50
270.0
 51
0.0
  0
LINE
  5
2D2
330
1F
100
AcDbEntity
  8
0
  6
Continuous
 62
     7
370
    25
100
AcDbLine
 10
218.7958744086
 20
210.1015692607
 30
0.0
 11
303.5149362601
 21
210.1015692607
 31
0.0
  0
LINE
  5
2D3
330
1F
100
AcDbEntity
  8
0
  6
Continuous
 62
     7
370
    25
100
AcDbLine
 10
632.0768234051
 20
210.1015692607
 30
0.0
 11
674.795874647
 21
210.1015692607
 31
0.0
  0
ARC
  5
2D4
330
1F
100
AcDbEntity
  8
0
  6
Continuous
 62
     7
370
    25
100
AcDbCircle
 10
218.7958745278
 20
214.1015694395
 30
0.0
 40
4.000000000000028
100
AcDbArc
 50
180.0
 51
270.0
  0
LINE
  5
2D5
330
1F
100
AcDbEntity
  8
0
  6
Continuous
 62
     7
370
    25
100
AcDbLine
 10
214.7958812035
 20
390.1015689627
 30
0.0
 11
214.7958812035
 21
314.801569286
 31
0.0
  0
LINE
  5
2D6
330
1F
100
AcDbEntity
  8
0
  6
Continuous
 62
     7
370
    25
100
AcDbLine
 10
214.7958812035
 20
289.401569593
 30
0.0
 11
214.7958812035
 21
214.1015699164
 31
0.0
  0
ARC
  5
2D7
330
1F
100
AcDbEntity
  8
0
  6
Continuous
 62
     7
370
    25
100
AcDbCircle
 10
218.7958745278
 20
390.1015694395
 30
0.0
 40
4.000000000000028
100
AcDbArc
 50
90.0
 51
180.0
  0
LINE
  5
2D8
330
1F
100
AcDbEntity
  8
0
  6
Continuous
 62
     7
370
    25
100
AcDbLine
 10
674.795874647
 20
394.1015696183
 30
0.0
 11
632.0768234051
 21
394.1015696183
 31
0.0
  0
LINE
  5
2D9
330
1F
100
AcDbEntity
  8
0
  6
Continuous
 62
     7
370
    25
100
AcDbLine
 10
303.5149362601
 20
394.1015696183
 30
0.0
 11
218.7958744086
 21
394.1015696183
 31
0.0
  0
ARC
  5
2DA
330
1F
100
AcDbEntity
  8
0
  6
Continuous
 62
     7
370
    25
100
AcDbCircle
 10
674.7958745278
 20
390.1015694395
 30
0.0
 40
4.0
100
AcDbArc
 50
0.0
 51
90.0
  0
LINE
  5
2DB
330
1F
100
AcDbEntity
  8
0
  6
Continuous
 62
     7
370
    25
100
AcDbLine
 10
678.795867852
 20
322.1015689925
 30
0.0
 11
678.795867852
 21
390.1015689627
 31
0.0
  0
CIRCLE
  5
2DC
330
1F
100
AcDbEntity
  8
0
  6
Continuous
 62
     7
370
    25
100
AcDbCircle
 10
658.7958745278
 20
382.1015694395
 30
0.0
 40
6.0
  0
ARC
  5
2DD
330
1F
100
AcDbEntity
  8
0
  6
Continuous
 62
     7
370
    25
100
AcDbCircle
 10
268.7958745278
 20
222.1015694395
 30
0.0
 40
6.0
100
AcDbArc
 50
270.0
 51
90.0
  0
LINE
  5
2DE
330
1F
100
AcDbEntity
  8
0
  6
Continuous
 62
     7
370
    25
100
AcDbLine
 10
268.7958714283
 20
228.1015684859
 30
0.0
 11
258.7958809651
 21
228.1015684859
 31
0.0
  0
ARC
  5
2DF
330
1F
100
AcDbEntity
  8
0
  6
Continuous
 62
     7
370
    25
100
AcDbCircle
 10
258.7958745278
 20
222.1015694395
 30
0.0
 40
6.0
100
AcDbArc
 50
90.0
 51
270.0
  0
LINE
  5
2E0
330
1F
100
AcDbEntity
  8
0
  6
Continuous
 62
     7
370
    25
100
AcDbLine
 10
258.7958809651
 20
216.1015665189
 30
0.0
 11
268.7958714283
 21
216.1015665189
 31
0.0
  0
ARC
  5
2E1
330
1F
100
AcDbEntity
  8
0
  6
Continuous
 62
     7
370
    25
100
AcDbCircle
 10
268.7958745278
 20
382.1015694395
 30
0.0
 40
6.0
100
AcDbArc
 50
270.0
 51
90.0
  0
LINE
  5
2E2
330
1F
100
AcDbEntity
  8
0
  6
Continuous
 62
     7
370
    25
100
AcDbLine
 10
268.7958714283
 20
388.1015723602
 30
0.0
 11
258.7958809651
 21
388.1015723602
 31
0.0
  0
ARC
  5
2E3
330
1F
100
AcDbEntity
  8
0
  6
Continuous
 62
     7
370
    25
100
AcDbCircle
 10
258.7958745278
 20
382.1015694395
 30
0.0
 40
6.0
100
AcDbArc
 50
90.0
 51
270.0
  0
LINE
  5
2E4
330
1F
100
AcDbEntity
  8
0
  6
Continuous
 62
     7
370
    25
100
AcDbLine
 10
258.7958809651
 20
376.1015703932
 30
0.0
 11
268.7958714283
 21
376.1015703932
 31
0.0
  0
CIRCLE
  5
2E5
330
1F
100
AcDbEntity
  8
0
  6
Continuous
 62
     7
370
    25
100
AcDbCircle
 10
658.7958745278
 20
222.1015694395
 30
0.0
 40
6.0
  0
ENDSEC
  0
SECTION
  2
OBJECTS
  0
DICTIONARY
  5
C
330
0
100
AcDbDictionary
281
     1
  3
ACAD_GROUP
350
D
  3
ACAD_LAYOUT
350
1A
  3
ACAD_MLINESTYLE
350
17
  3
ACAD_PLOTSETTINGS
350
19
  3
ACAD_PLOTSTYLENAME
350
E
  3
ACAD_SCALELIST
350
47
  0
DICTIONARY
  5
D
102
{ACAD_REACTORS
330
C
102
}
330
C
100
AcDbDictionary
281
     1
  0
DICTIONARY
  5
1A
102
{ACAD_REACTORS
330
C
102
}
330
C
100
AcDbDictionary
281
     1
  3
Layout1
350
1E
  3
Layout2
350
26
  3
Model
350
22
  0
DICTIONARY
  5
17
102
{ACAD_REACTORS
330
C
102
}
330
C
100
AcDbDictionary
281
     1
  3
Standard
350
18
  0
DICTIONARY
  5
19
102
{ACAD_REACTORS
330
C
102
}
330
C
100
AcDbDictionary
281
     1
  0
ACDBDICTIONARYWDFLT
  5
E
102
{ACAD_REACTORS
330
C
102
}
330
C
100
AcDbDictionary
281
     1
  3
Normal
350
F
100
AcDbDictionaryWithDefault
340
F
  0
DICTIONARY
  5
47
102
{ACAD_REACTORS
330
C
102
}
330
C
100
AcDbDictionary
281
     1
  3
A0
350
48
  3
A1
350
49
  3
A2
350
4A
  3
A3
350
4B
  3
A4
350
4C
  3
A5
350
4D
  3
A6
350
4E
  3
A7
350
4F
  3
A8
350
50
  3
A9
350
51
  3
B0
350
52
  3
B1
350
53
  3
B2
350
54
  3
B3
350
55
  3
B4
350
56
  3
B5
350
57
  3
B6
350
58
  3
B7
350
59
  3
B8
350
5A
  3
B9
350
5B
  3
C0
350
5C
  3
C1
350
5D
  3
C2
350
5E
  3
C3
350
5F
  3
C4
350
60
  3
C5
350
61
  3
C6
350
62
  3
C7
350
63
  3
C8
350
64
  3
C9
350
65
  3
D0
350
66
  3
D1
350
67
  3
D2
350
68
  0
LAYOUT
  5
1E
102
{ACAD_REACTORS
330
1A
102
}
330
1A
100
AcDbPlotSettings
  1

  2
none_device
  4

  6

 40
0.0
 41
0.0
 42
0.0
 43
0.0
 44
0.0
 45
0.0
 46
0.0
 47
0.0
 48
0.0
 49
0.0
140
0.0
141
0.0
142
1.0
143
1.0
 70
   688
 72
     1
 73
     0
 74
     5
  7

 75
    16
147
1.0
148
0.0
149
0.0
100
AcDbLayout
  1
Layout1
 70
     1
 71
     1
 10
0.0
 20
0.0
 11
420.0
 21
297.0
 12
0.0
 22
0.0
 32
0.0
 14
1.0000000000E+20
 24
1.0000000000E+20
 34
1.0000000000E+20
 15
-1.0000000000E+20
 25
-1.0000000000E+20
 35
-1.0000000000E+20
146
0.0
 13
0.0
 23
0.0
 33
0.0
 16
1.0
 26
0.0
 36
0.0
 17
0.0
 27
1.0
 37
0.0
 76
     0
330
1B
  0
LAYOUT
  5
26
102
{ACAD_REACTORS
330
1A
102
}
330
1A
100
AcDbPlotSettings
  1

  2
none_device
  4

  6

 40
0.0
 41
0.0
 42
0.0
 43
0.0
 44
0.0
 45
0.0
 46
0.0
 47
0.0
 48
0.0
 49
0.0
140
0.0
141
0.0
142
1.0
143
1.0
 70
   688
 72
     1
 73
     0
 74
     5
  7

 75
    16
147
1.0
148
0.0
149
0.0
100
AcDbLayout
  1
Layout2
 70
     1
 71
     2
 10
0.0
 20
0.0
 11
0.0
 21
0.0
 12
0.0
 22
0.0
 32
0.0
 14
0.0
 24
0.0
 34
0.0
 15
0.0
 25
0.0
 35
0.0
146
0.0
 13
0.0
 23
0.0
 33
0.0
 16
1.0
 26
0.0
 36
0.0
 17
0.0
 27
1.0
 37
0.0
 76
     0
330
23
  0
LAYOUT
  5
22
102
{ACAD_REACTORS
330
1A
102
}
330
1A
100
AcDbPlotSettings
  1

  2
none_device
  4
Letter_(8.50_x_11.00_Inches)
  6

 40
6.35
 41
6.35
 42
6.35000508
 43
6.35000508
 44
215.9
 45
279.4
 46
0.0
 47
0.0
 48
0.0
 49
0.0
140
0.0
141
0.0
142
1.0
143
1.0
 70
  1712
 72
     1
 73
     0
 74
     0
  7

 75
     0
147
1.0
148
0.0
149
0.0
100
AcDbLayout
  1
Model
 70
     1
 71
     0
 10
0.0
 20
0.0
 11
1189.0
 21
841.0
 12
0.0
 22
0.0
 32
0.0
 14
0.0
 24
0.0
 34
0.0
 15
1189.0
 25
841.0
 35
0.0
146
0.0
 13
0.0
 23
0.0
 33
0.0
 16
1.0
 26
0.0
 36
0.0
 17
0.0
 27
1.0
 37
0.0
 76
     0
330
1F
331
29
  0
MLINESTYLE
  5
18
102
{ACAD_REACTORS
330
17
102
}
330
17
100
AcDbMlineStyle
  2
Standard
 70
     0
  3

 62
   256
 51
90.0
 52
90.0
 71
     2
 49
0.5
 62
   256
  6
BYLAYER
 49
-0.5
 62
   256
  6
BYLAYER
  0
ACDBPLACEHOLDER
  5
F
102
{ACAD_REACTORS
330
E
102
}
330
E
  0
SCALE
  5
48
102
{ACAD_REACTORS
330
47
102
}
330
47
100
AcDbScale
 70
     0
300
1:1
140
1.0
141
1.0
290
     1
  0
SCALE
  5
49
102
{ACAD_REACTORS
330
47
102
}
330
47
100
AcDbScale
 70
     0
300
1:2
140
1.0
141
2.0
290
     0
  0
SCALE
  5
4A
102
{ACAD_REACTORS
330
47
102
}
330
47
100
AcDbScale
 70
     0
300
1:4
140
1.0
141
4.0
290
     0
  0
SCALE
  5
4B
102
{ACAD_REACTORS
330
47
102
}
330
47
100
AcDbScale
 70
     0
300
1:5
140
1.0
141
5.0
290
     0
  0
SCALE
  5
4C
102
{ACAD_REACTORS
330
47
102
}
330
47
100
AcDbScale
 70
     0
300
1:8
140
1.0
141
8.0
290
     0
  0
SCALE
  5
4D
102
{ACAD_REACTORS
330
47
102
}
330
47
100
AcDbScale
 70
     0
300
1:10
140
1.0
141
10.0
290
     0
  0
SCALE
  5
4E
102
{ACAD_REACTORS
330
47
102
}
330
47
100
AcDbScale
 70
     0
300
1:16
140
1.0
141
16.0
290
     0
  0
SCALE
  5
4F
102
{ACAD_REACTORS
330
47
102
}
330
47
100
AcDbScale
 70
     0
300
1:20
140
1.0
141
20.0
290
     0
  0
SCALE
  5
50
102
{ACAD_REACTORS
330
47
102
}
330
47
100
AcDbScale
 70
     0
300
1:30
140
1.0
141
30.0
290
     0
  0
SCALE
  5
51
102
{ACAD_REACTORS
330
47
102
}
330
47
100
AcDbScale
 70
     0
300
1:40
140
1.0
141
40.0
290
     0
  0
SCALE
  5
52
102
{ACAD_REACTORS
330
47
102
}
330
47
100
AcDbScale
 70
     0
300
1:50
140
1.0
141
50.0
290
     0
  0
SCALE
  5
53
102
{ACAD_REACTORS
330
47
102
}
330
47
100
AcDbScale
 70
     0
300
1:100
140
1.0
141
100.0
290
     0
  0
SCALE
  5
54
102
{ACAD_REACTORS
330
47
102
}
330
47
100
AcDbScale
 70
     0
300
2:1
140
2.0
141
1.0
290
     0
  0
SCALE
  5
55
102
{ACAD_REACTORS
330
47
102
}
330
47
100
AcDbScale
 70
     0
300
4:1
140
4.0
141
1.0
290
     0
  0
SCALE
  5
56
102
{ACAD_REACTORS
330
47
102
}
330
47
100
AcDbScale
 70
     0
300
8:1
140
8.0
141
1.0
290
     0
  0
SCALE
  5
57
102
{ACAD_REACTORS
330
47
102
}
330
47
100
AcDbScale
 70
     0
300
10:1
140
10.0
141
1.0
290
     0
  0
SCALE
  5
58
102
{ACAD_REACTORS
330
47
102
}
330
47
100
AcDbScale
 70
     0
300
100:1
140
100.0
141
1.0
290
     0
  0
SCALE
  5
59
102
{ACAD_REACTORS
330
47
102
}
330
47
100
AcDbScale
 70
     0
300
1/128" = 1'-0"
140
0.0078125
141
12.0
290
     0
  0
SCALE
  5
5A
102
{ACAD_REACTORS
330
47
102
}
330
47
100
AcDbScale
 70
     0
300
1/64" = 1'-0"
140
0.015625
141
12.0
290
     0
  0
SCALE
  5
5B
102
{ACAD_REACTORS
330
47
102
}
330
47
100
AcDbScale
 70
     0
300
1/32" = 1'-0"
140
0.03125
141
12.0
290
     0
  0
SCALE
  5
5C
102
{ACAD_REACTORS
330
47
102
}
330
47
100
AcDbScale
 70
     0
300
1/16" = 1'-0"
140
0.0625
141
12.0
290
     0
  0
SCALE
  5
5D
102
{ACAD_REACTORS
330
47
102
}
330
47
100
AcDbScale
 70
     0
300
3/32" = 1'-0"
140
0.09375
141
12.0
290
     0
  0
SCALE
  5
5E
102
{ACAD_REACTORS
330
47
102
}
330
47
100
AcDbScale
 70
     0
300
1/8" = 1'-0"
140
0.125
141
12.0
290
     0
  0
SCALE
  5
5F
102
{ACAD_REACTORS
330
47
102
}
330
47
100
AcDbScale
 70
     0
300
3/16" = 1'-0"
140
0.1875
141
12.0
290
     0
  0
SCALE
  5
60
102
{ACAD_REACTORS
330
47
102
}
330
47
100
AcDbScale
 70
     0
300
1/4" = 1'-0"
140
0.25
141
12.0
290
     0
  0
SCALE
  5
61
102
{ACAD_REACTORS
330
47
102
}
330
47
100
AcDbScale
 70
     0
300
3/8" = 1'-0"
140
0.375
141
12.0
290
     0
  0
SCALE
  5
62
102
{ACAD_REACTORS
330
47
102
}
330
47
100
AcDbScale
 70
     0
300
1/2" = 1'-0"
140
0.5
141
12.0
290
     0
  0
SCALE
  5
63
102
{ACAD_REACTORS
330
47
102
}
330
47
100
AcDbScale
 70
     0
300
3/4" = 1'-0"
140
0.75
141
12.0
290
     0
  0
SCALE
  5
64
102
{ACAD_REACTORS
330
47
102
}
330
47
100
AcDbScale
 70
     0
300
1" = 1'-0"
140
1.0
141
12.0
290
     0
  0
SCALE
  5
65
102
{ACAD_REACTORS
330
47
102
}
330
47
100
AcDbScale
 70
     0
300
1-1/2" = 1'-0"
140
1.5
141
12.0
290
     0
  0
SCALE
  5
66
102
{ACAD_REACTORS
330
47
102
}
330
47
100
AcDbScale
 70
     0
300
3" = 1'-0"
140
3.0
141
12.0
290
     0
  0
SCALE
  5
67
102
{ACAD_REACTORS
330
47
102
}
330
47
100
AcDbScale
 70
     0
300
6" = 1'-0"
140
6.0
141
12.0
290
     0
  0
SCALE
  5
68
102
{ACAD_REACTORS
330
47
102
}
330
47
100
AcDbScale
 70
     0
300
1'-0" = 1'-0"
140
12.0
141
12.0
290
     0
  0
ENDSEC
  0
EOF
